  0
SECTION
  2
HEADER
  9
$ACADVER
  1
AC1015
  9
$ACADMAINTVER
 70
     6
  9
$DWGCODEPAGE
  3
ANSI_1252
  9
$INSBASE
 10
0.0
 20
0.0
 30
0.0
  9
$EXTMIN
 10
1.000000E+20
 20
1.000000E+20
 30
1.000000E+20
  9
$EXTMAX
 10
-1.000000E+20
 20
-1.000000E+20
 30
-1.000000E+20
  9
$LIMMIN
 10
0.0
 20
0.0
  9
$LIMMAX
 10
0.0
 20
0.0
  9
$ORTHOMODE
 70
     0
  9
$REGENMODE
 70
     1
  9
$FILLMODE
 70
     1
  9
$QTEXTMODE
 70
     0
  9
$MIRRTEXT
 70
     1
  9
$LTSCALE
 40
50.0
  9
$ATTMODE
 70
     1
  9
$TEXTSIZE
 40
0.2
  9
$TRACEWID
 40
0.05
  9
$TEXTSTYLE
  7
Standard
  9
$CLAYER
  8
0
  9
$CELTYPE
  6
Continuous
  9
$CECOLOR
 62
   256
  9
$CELTSCALE
 40
1.0
  9
$DISPSILH
 70
     0
  9
$DIMSCALE
 40
1.0
  9
$DIMASZ
 40
0.18
  9
$DIMEXO
 40
0.0625
  9
$DIMDLI
 40
0.38
  9
$DIMRND
 40
0.0
  9
$DIMDLE
 40
0.0
  9
$DIMEXE
 40
0.18
  9
$DIMTP
 40
0.0
  9
$DIMTM
 40
0.0
  9
$DIMTXT
 40
0.18
  9
$DIMCEN
 40
0.09
  9
$DIMTSZ
 40
0.0
  9
$DIMTOL
 70
     0
  9
$DIMLIM
 70
     0
  9
$DIMTIH
 70
     1
  9
$DIMTOH
 70
     1
  9
$DIMSE1
 70
     0
  9
$DIMSE2
 70
     0
  9
$DIMTAD
 70
     0
  9
$DIMZIN
 70
     0
  9
$DIMBLK
  1

  9
$DIMASO
 70
     1
  9
$DIMSHO
 70
     1
  9
$DIMPOST
  1

  9
$DIMAPOST
  1

  9
$DIMALT
 70
     0
  9
$DIMALTD
 70
     2
  9
$DIMALTF
 40
25.4
  9
$DIMLFAC
 40
1.0
  9
$DIMTOFL
 70
     0
  9
$DIMTVP
 40
0.0
  9
$DIMTIX
 70
     0
  9
$DIMSOXD
 70
     0
  9
$DIMSAH
 70
     0
  9
$DIMBLK1
  1

  9
$DIMBLK2
  1

  9
$DIMSTYLE
  2
Standard
  9
$DIMCLRD
 70
     0
  9
$DIMCLRE
 70
     0
  9
$DIMCLRT
 70
     0
  9
$DIMTFAC
 40
1.0
  9
$DIMGAP
 40
0.09
  9
$DIMJUST
 70
     0
  9
$DIMSD1
 70
     0
  9
$DIMSD2
 70
     0
  9
$DIMTOLJ
 70
     1
  9
$DIMTZIN
 70
     0
  9
$DIMALTZ
 70
     0
  9
$DIMALTTZ
 70
     0
  9
$DIMUPT
 70
     0
  9
$DIMDEC
 70
     4
  9
$DIMTDEC
 70
     4
  9
$DIMALTU
 70
     2
  9
$DIMALTTD
 70
     2
  9
$DIMTXSTY
  7
Standard
  9
$DIMAUNIT
 70
     0
  9
$DIMADEC
 70
     0
  9
$DIMALTRND
 40
0.0
  9
$DIMAZIN
 70
     0
  9
$DIMDSEP
 70
     0
  9
$DIMATFIT
 70
     3
  9
$DIMFRAC
 70
     0
  9
$DIMLDRBLK
  1

  9
$DIMLUNIT
 70
     2
  9
$DIMLWD
 70
     0
  9
$DIMLWE
 70
     0
  9
$DIMTMOVE
 70
     0
  9
$LUNITS
 70
     2
  9
$LUPREC
 70
     4
  9
$SKETCHINC
 40
0.1
  9
$FILLETRAD
 40
0.0
  9
$AUNITS
 70
     0
  9
$AUPREC
 70
     0
  9
$MENU
  1
acad
  9
$ELEVATION
 40
0.0
  9
$PELEVATION
 40
0.0
  9
$THICKNESS
 40
0.0
  9
$LIMCHECK
 70
     0
  9
$CHAMFERA
 40
0.0
  9
$CHAMFERB
 40
0.0
  9
$CHAMFERC
 40
0.0
  9
$CHAMFERD
 40
0.0
  9
$SKPOLY
 70
     0
  9
$TDCREATE
 40
0.000000000
  9
$TDUCREATE
 40
0.000000000
  9
$TDUPDATE
 40
0.000000000
  9
$TDUUPDATE
 40
0.000000000
  9
$TDINDWG
 40
0.0000000000
  9
$TDUSRTIMER
 40
0.0000000000
  9
$USRTIMER
 70
     1
  9
$ANGBASE
 50
0.0
  9
$ANGDIR
 70
     0
  9
$PDMODE
 70
     0
  9
$PDSIZE
 40
0.0
  9
$PLINEWID
 40
0.0
  9
$SPLFRAME
 70
     0
  9
$SPLINETYPE
 70
     6
  9
$SPLINESEGS
 70
   120
  9
$HANDSEED
  5
FF
  9
$SURFTAB1
 70
     6
  9
$SURFTAB2
 70
     6
  9
$SURFTYPE
 70
     6
  9
$SURFU
 70
     6
  9
$SURFV
 70
     6
  9
$UCSBASE
  2

  9
$UCSNAME
  2

  9
$UCSORG
 10
0.0
 20
0.0
 30
0.0
  9
$UCSXDIR
 10
1.0
 20
0.0
 30
0.0
  9
$UCSYDIR
 10
0.0
 20
1.0
 30
0.0
  9
$UCSORTHOREF
  2

  9
$UCSORTHOVIEW
 70
     0
  9
$UCSORGTOP
 10
0.0
 20
0.0
 30
0.0
  9
$UCSORGBOTTOM
 10
0.0
 20
0.0
 30
0.0
  9
$UCSORGLEFT
 10
0.0
 20
0.0
 30
0.0
  9
$UCSORGRIGHT
 10
0.0
 20
0.0
 30
0.0
  9
$UCSORGFRONT
 10
0.0
 20
0.0
 30
0.0
  9
$UCSORGBACK
 10
0.0
 20
0.0
 30
0.0
  9
$PUCSBASE
  2

  9
$PUCSNAME
  2

  9
$PUCSORG
 10
0.0
 20
0.0
 30
0.0
  9
$PUCSXDIR
 10
1.0
 20
0.0
 30
0.0
  9
$PUCSYDIR
 10
0.0
 20
1.0
 30
0.0
  9
$PUCSORTHOREF
  2

  9
$PUCSORTHOVIEW
 70
     0
  9
$PUCSORGTOP
 10
0.0
 20
0.0
 30
0.0
  9
$PUCSORGBOTTOM
 10
0.0
 20
0.0
 30
0.0
  9
$PUCSORGLEFT
 10
0.0
 20
0.0
 30
0.0
  9
$PUCSORGRIGHT
 10
0.0
 20
0.0
 30
0.0
  9
$PUCSORGFRONT
 10
0.0
 20
0.0
 30
0.0
  9
$PUCSORGBACK
 10
0.0
 20
0.0
 30
0.0
  9
$USERI1
 70
 12345
  9
$USERI2
 70
     0
  9
$USERI3
 70
     0
  9
$USERI4
 70
     0
  9
$USERI5
 70
     0
  9
$USERR1
 40
0.0
  9
$USERR2
 40
0.0
  9
$USERR3
 40
0.0
  9
$USERR4
 40
0.0
  9
$USERR5
 40
0.0
  9
$WORLDVIEW
 70
     1
  9
$SHADEDGE
 70
     3
  9
$SHADEDIF
 70
    70
  9
$TILEMODE
 70
     1
  9
$MAXACTVP
 70
    16
  9
$PINSBASE
 10
0.0
 20
0.0
 30
0.0
  9
$PLIMCHECK
 70
     0
  9
$PEXTMIN
 10
1.000000E+20
 20
1.000000E+20
 30
1.000000E+20
  9
$PEXTMAX
 10
-1.000000E+20
 20
-1.000000E+20
 30
-1.000000E+20
  9
$PLIMMIN
 10
0.0
 20
0.0
  9
$PLIMMAX
 10
12.0
 20
9.0
  9
$UNITMODE
 70
     0
  9
$VISRETAIN
 70
     0
  9
$PLINEGEN
 70
     1
  9
$PSLTSCALE
 70
     0
  9
$TREEDEPTH
 70
  3020
  9
$CMLSTYLE
  2
Standard
  9
$CMLJUST
 70
     0
  9
$CMLSCALE
 40
1.0
  9
$PROXYGRAPHICS
 70
     0
  9
$MEASUREMENT
 70
     0
  9
$CELWEIGHT
370
     0
  9
$ENDCAPS
280
     0
  9
$JOINSTYLE
280
     0
  9
$LWDISPLAY
290
     0
  9
$INSUNITS
 70
     0
  9
$HYPERLINKBASE
  1

  9
$STYLESHEET
  1

  9
$XEDIT
290
     1
  9
$CEPSNTYPE
380
     0
  9
$PSTYLEMODE
290
     1
  9
$FINGERPRINTGUID
  2

  9
$VERSIONGUID
  2

  9
$EXTNAMES
290
     1
  9
$PSVPSCALE
 40
0.0
  0
ENDSEC
  0
SECTION
  2
CLASSES
  0
CLASS
  1
LWPOLYLINE
  2
AcDbPolyline
  3
AutoCAD 2000
 90
        0
280
     0
281
     1
  0
CLASS
  1
IMAGE
  2
AcDbRasterImage
  3
ISM
 90
      127
280
     0
281
     1
  0
CLASS
  1
OLE2FRAME
  2
AcDbOle2Frame
  3
AutoCAD 2000
 90
        0
280
     0
281
     1
  0
CLASS
  1
HATCH
  2
AcDbHatch
  3
AutoCAD 2000
 90
        0
280
     0
281
     1
  0
CLASS
  1
DICTIONARYVAR
  2
AcDbDictionaryVar
  3
AutoCAD 2000
 90
        0
280
     0
281
     0
  0
CLASS
  1
RASTERVARIABLES
  2
AcDbRasterVariables
  3
ISM
 90
        0
280
     0
281
     0
  0
CLASS
  1
IMAGEDEF
  2
AcDbRasterImageDef
  3
ISM
 90
        0
280
     0
281
     0
  0
CLASS
  1
IMAGEDEF_REACTOR
  2
AcDbRasterImageDefReactor
  3
ISM
 90
        1
280
     0
281
     0
  0
CLASS
  1
IDBUFFER
  2
AcDbIdBuffer
  3
AutoCAD 2000
 90
        0
280
     0
281
     0
  0
CLASS
  1
SPATIAL_FILTER
  2
AcDbSpatialFilter
  3
AutoCAD 2000
 90
        0
280
     0
281
     0
  0
CLASS
  1
XRECORD
  2
AcDbXrecord
  3
AutoCAD 2000
 90
        0
280
     0
281
     0
  0
CLASS
  1
SORTENTSTABLE
  2
AcDbSortentsTable
  3
AutoCAD 2000
 90
        0
280
     0
281
     0
  0
CLASS
  1
LAYER_INDEX
  2
AcDbLayerIndex
  3
AutoCAD 2000
 90
        0
280
     0
281
     0
  0
CLASS
  1
SPATIAL_INDEX
  2
AcDbSpatialIndex
  3
AutoCAD 2000
 90
        0
280
     0
281
     0
  0
CLASS
  1
OBJECT_PTR
  2
CAseDLPNTableRecord
  3
"ASE-LPNTableRecord"
 90
        1
280
     0
281
     0
  0
CLASS
  1
LAYOUT
  2
AcDbLayout
  3
AutoCAD 2000
 90
        0
280
     0
281
     0
  0
CLASS
  1
PLOTSETTINGS
  2
AcDbPlotSettings
  3
AutoCAD 2000
 90
        0
280
     0
281
     0
  0
CLASS
  1
ACDBDICTIONARYWDFLT
  2
AcDbDictionaryWithDefault
  3
AutoCAD 2000
 90
        0
280
     0
281
     0
  0
CLASS
  1
ACDBPLACEHOLDER
  2
AcDbPlaceHolder
  3
AutoCAD 2000
 90
        0
280
     0
281
     0
  0
CLASS
  1
VBA_PROJECT
  2
AcDbVbaProject
  3
acadvba
 90
        0
280
     0
281
     0
  0
CLASS
  1
WIPEOUT
  2
AcDbWipeout
  3
WipeOut|AutoCAD Express Tool|expresstools@autodesk.com
 90
      127
280
     0
281
     1
  0
CLASS
  1
WIPEOUTVARIABLES
  2
AcDbWipeoutVariables
  3
WipeOut|AutoCAD Express Tool|expresstools@autodesk.com
 90
        0
280
     0
281
     0
  0
CLASS
  1
RTEXT
  2
RText
  3
RText|AutoCAD Express Tool|expresstools@autodesk.com
 90
        0
280
     0
281
     1
  0
CLASS
  1
ARCALIGNEDTEXT
  2
AcDbArcAlignedText
  3
ATEXT|AutoCAD Express Tool|expresstools@autodesk.com
 90
        0
280
     0
281
     1
  0
ENDSEC
  0
SECTION
  2
TABLES
  0
TABLE
  2
VPORT
  5
7
100
AcDbSymbolTable
 70
     1
  0
VPORT
  5
15
100
AcDbSymbolTableRecord
100
AcDbViewportTableRecord
  2
*ACTIVE
 70
     0
 10
0.0
 20
0.0
 11
1.0
 21
1.0
 12
104.0
 22
-160.0
 13
0.0
 23
0.0
 14
1.0
 24
1.0
 15
0.0
 25
0.0
 16
0.0
 26
0.0
 36
1.0
 17
0.0
 27
0.0
 37
0.0
 40
3249.355957
 41
0.688564
 42
50.0
 43
0.0
 44
0.0
 50
0.0
 51
0.0
 71
     0
 72
   100
 73
     1
 74
     1
 75
     0
 76
     0
 77
     0
 78
     0
281
     0
 65
     0
110
0.0
120
0.0
130
0.0
111
1.0
121
0.0
131
0.0
112
0.0
122
1.0
132
0.0
345
0
346
0
 79
     0
146
0.0
  0
ENDTAB
  0
TABLE
  2
LTYPE
  5
4
100
AcDbSymbolTable
 70
     7
  0
LTYPE
  5
11
100
AcDbSymbolTableRecord
100
AcDbLinetypeTableRecord
  2
ByBlock
 70
    64
  3

 72
    65
 73
     0
 40
0.0
  0
LTYPE
  5
12
100
AcDbSymbolTableRecord
100
AcDbLinetypeTableRecord
  2
ByLayer
 70
    64
  3

 72
    65
 73
     0
 40
0.0
  0
LTYPE
  5
13
100
AcDbSymbolTableRecord
100
AcDbLinetypeTableRecord
  2
Continuous
 70
    64
  3
Solid line
 72
    65
 73
     0
 40
0.0
  0
LTYPE
  5
24
100
AcDbSymbolTableRecord
100
AcDbLinetypeTableRecord
  2
DASHED
 70
    64
  3
Dashed __ __ __
 72
    65
 73
     2
 40
0.75
 49
0.5
 74
     0
 49
-0.25
 74
     0
  0
LTYPE
  5
25
100
AcDbSymbolTableRecord
100
AcDbLinetypeTableRecord
  2
DOT
 70
    64
  3
Dot . . . .
 72
    65
 73
     2
 40
0.25
 49
0.0
 74
     0
 49
-0.25
 74
     0
  0
LTYPE
  5
26
100
AcDbSymbolTableRecord
100
AcDbLinetypeTableRecord
  2
DASHDOT
 70
    64
  3
Dash dot __ . __ .
 72
    65
 73
     4
 40
1.0
 49
0.5
 74
     0
 49
-0.25
 74
     0
 49
0.0
 74
     0
 49
-0.25
 74
     0
  0
LTYPE
  5
27
100
AcDbSymbolTableRecord
100
AcDbLinetypeTableRecord
  2
DIVIDE
 70
    64
  3
Divide __ . . __ . .
 72
    65
 73
     6
 40
1.25
 49
0.5
 74
     0
 49
-0.25
 74
     0
 49
0.0
 74
     0
 49
-0.25
 74
     0
 49
0.0
 74
     0
 49
-0.25
 74
     0
  0
ENDTAB
  0
TABLE
  2
LAYER
  5
2
100
AcDbSymbolTable
 70
     3
  0
LAYER
  5
14
100
AcDbSymbolTableRecord
100
AcDbLayerTableRecord
  2
0
 70
     0
 62
     7
  6
Continuous
290
     1
370
    -3
390
1D
  0
LAYER
  5
29
100
AcDbSymbolTableRecord
100
AcDbLayerTableRecord
  2
LAYER01
 70
     0
 62
     7
  6
Continuous
290
     1
370
    -3
390
1D
  0
LAYER
  5
2B
100
AcDbSymbolTableRecord
100
AcDbLayerTableRecord
  2
LAYER22
 70
     0
 62
     7
  6
Continuous
290
     1
370
    -3
390
1D
  0
ENDTAB
  0
TABLE
  2
STYLE
  5
3
100
AcDbSymbolTable
 70
     1
  0
STYLE
  5
17
100
AcDbSymbolTableRecord
100
AcDbTextStyleTableRecord
  2
Standard
 70
     0
 40
0.0
 41
1.0
 50
0.0
 71
     0
 42
0.0
  3
txt
  4

  0
ENDTAB
  0
TABLE
  2
VIEW
  5
5
100
AcDbSymbolTable
 70
     0
  0
ENDTAB
  0
TABLE
  2
UCS
  5
6
100
AcDbSymbolTable
 70
     0
  0
ENDTAB
  0
TABLE
  2
APPID
  5
8
100
AcDbSymbolTable
 70
     1
  0
APPID
  5
16
100
AcDbSymbolTableRecord
100
AcDbRegAppTableRecord
  2
ACAD
 70
     0
  0
ENDTAB
  0
TABLE
  2
DIMSTYLE
  5
9
100
AcDbSymbolTable
 70
     1
100
AcDbDimStyleTable
 71
     0
  0
DIMSTYLE
105
18
100
AcDbSymbolTableRecord
100
AcDbDimStyleTableRecord
  2
Standard
 70
     0
  3

  4

 40
1.0
 41
0.18
 42
0.0625
 43
0.38
 44
0.18
 45
0.0
 46
0.0
 47
0.0
 48
0.0
 71
     0
 72
     0
 73
     1
 74
     1
 75
     0
 76
     0
 77
     0
 78
     0
 79
     0
140
0.18
141
0.09
142
0.0
143
25.4
144
1.0
145
0.0
146
1.0
147
0.09
148
0.0
170
     0
171
     2
172
     0
173
     0
174
     0
175
     0
176
     0
177
     0
178
     0
179
     0
271
     4
272
     4
273
     2
274
     2
275
     0
276
     0
277
     2
278
    46
279
     0
280
     0
281
     0
282
     0
283
     1
284
     0
285
     0
286
     0
288
     0
289
     3
340
17
341
0
342
0
343
0
344
0
371
    -2
372
    -2
  0
ENDTAB
  0
TABLE
  2
BLOCK_RECORD
  5
1
100
AcDbSymbolTable
 70
     0
  0
BLOCK_RECORD
  5
A
100
AcDbSymbolTableRecord
100
AcDbBlockTableRecord
  2
*MODEL_SPACE
340
20
  0
BLOCK_RECORD
  5
B
100
AcDbSymbolTableRecord
100
AcDbBlockTableRecord
  2
*PAPER_SPACE
340
21
  0
ENDTAB
  0
ENDSEC
  0
SECTION
  2
BLOCKS
  0
BLOCK
  5
D
100
AcDbEntity
  8
0
390
0
100
AcDbBlockBegin
  2
*MODEL_SPACE
 70
     0
 10
0.0
 20
0.0
 30
0.0
  3
*MODEL_SPACE
  1

  0
ENDBLK
  5
E
100
AcDbEntity
  8
0
390
0
100
AcDbBlockEnd
  0
BLOCK
  5
F
100
AcDbEntity
 67
     1
  8
0
390
0
100
AcDbBlockBegin
  2
*PAPER_SPACE
 70
     0
 10
0.0
 20
0.0
 30
0.0
  3
*PAPER_SPACE
  1

  0
ENDBLK
  5
10
100
AcDbEntity
 67
     1
  8
0
390
0
100
AcDbBlockEnd
  0
ENDSEC
  0
SECTION
  2
ENTITIES
  0
MTEXT
  5
28
100
AcDbEntity
  8
LAYER01
390
0
 62
     2
100
AcDbMText
 10
-2196.0
 20
1307.0
 30
0.0
 40
11.25
 41
0.0
 71
     7
 72
     1
  1
FLEXIO 85HV
 11
1.0
 21
0.0
 31
0.0
 73
     1
 44
1.333333
  0
LWPOLYLINE
  5
2A
100
AcDbEntity
  8
LAYER22
370
    13
390
0
  6
Continuous
 62
     5
100
AcDbPolyline
 90
        2
 70
     0
 10
-523.0
 20
-1559.746094
 10
-473.0
 20
-1559.746094
  0
LWPOLYLINE
  5
2C
100
AcDbEntity
  8
LAYER22
370
    18
390
0
  6
Continuous
 62
     1
100
AcDbPolyline
 90
        2
 70
     0
 10
-523.000061
 20
-1557.246094
 10
-523.000061
 20
-1567.246094
  0
LWPOLYLINE
  5
2D
100
AcDbEntity
  8
LAYER22
370
    18
390
0
  6
Continuous
 62
     1
100
AcDbPolyline
 90
        2
 70
     0
 10
-473.000031
 20
-1557.246094
 10
-473.000031
 20
-1567.246094
  0
MTEXT
  5
2E
100
AcDbEntity
  8
LAYER22
390
0
 62
     2
100
AcDbMText
 10
-498.0
 20
-1555.579468
 30
0.0
 40
11.25
 41
0.0
 71
     8
 72
     1
  1
50
 11
1.0
 21
0.0
 31
0.0
 73
     1
 44
1.333333
  0
LWPOLYLINE
  5
2F
100
AcDbEntity
  8
LAYER22
370
    13
390
0
  6
Continuous
 62
     5
100
AcDbPolyline
 90
        2
 70
     0
 10
-473.0
 20
-1559.746094
 10
427.0
 20
-1559.746094
  0
LWPOLYLINE
  5
30
100
AcDbEntity
  8
LAYER22
370
    18
390
0
  6
Continuous
 62
     1
100
AcDbPolyline
 90
        2
 70
     0
 10
-473.000031
 20
-1557.246094
 10
-473.000031
 20
-1567.246094
  0
LWPOLYLINE
  5
31
100
AcDbEntity
  8
LAYER22
370
    18
390
0
  6
Continuous
 62
     1
100
AcDbPolyline
 90
        2
 70
     0
 10
426.999969
 20
-1557.246094
 10
426.999969
 20
-1567.246094
  0
MTEXT
  5
32
100
AcDbEntity
  8
LAYER22
390
0
 62
     2
100
AcDbMText
 10
-23.0
 20
-1555.579468
 30
0.0
 40
11.25
 41
0.0
 71
     8
 72
     1
  1
900
 11
1.0
 21
0.0
 31
0.0
 73
     1
 44
1.333333
  0
LWPOLYLINE
  5
33
100
AcDbEntity
  8
LAYER22
370
    18
390
0
  6
Continuous
 62
     1
100
AcDbPolyline
 90
        2
 70
     0
 10
-2252.0
 20
-1452.0
 10
2490.0
 20
-1452.0
  0
LWPOLYLINE
  5
34
100
AcDbEntity
  8
LAYER22
370
    18
390
0
  6
DASHED
 62
     1
100
AcDbPolyline
 90
        2
 70
     0
 10
-2252.0
 20
1248.0
 10
2508.0
 20
1248.0
  0
MTEXT
  5
35
100
AcDbEntity
  8
LAYER01
390
0
 62
     2
100
AcDbMText
 10
-2299.0
 20
1388.0
 30
0.0
 40
15.75
 41
0.0
 71
     7
 72
     1
  1
FLEXIO 85 centrisch
 11
1.0
 21
0.0
 31
0.0
 73
     1
 44
1.333333
  0
LWPOLYLINE
  5
36
100
AcDbEntity
  8
LAYER22
370
    13
390
0
  6
Continuous
 62
     5
100
AcDbPolyline
 90
        2
 70
     0
 10
-2147.0
 20
-1452.0
 10
-2147.0
 20
1248.0
  0
LWPOLYLINE
  5
37
100
AcDbEntity
  8
LAYER22
370
    18
390
0
  6
Continuous
 62
     1
100
AcDbPolyline
 90
        2
 70
     0
 10
-2149.5
 20
-1452.0
 10
-2139.5
 20
-1452.0
  0
LWPOLYLINE
  5
38
100
AcDbEntity
  8
LAYER22
370
    18
390
0
  6
Continuous
 62
     1
100
AcDbPolyline
 90
        2
 70
     0
 10
-2149.5
 20
1248.0
 10
-2139.5
 20
1248.0
  0
MTEXT
  5
39
100
AcDbEntity
  8
LAYER22
390
0
 62
     2
100
AcDbMText
 10
-2151.166748
 20
-102.0
 30
0.0
 40
11.25
 41
0.0
 71
     8
 72
     1
  1
2700
 11
0.0
 21
1.0
 31
0.0
 73
     1
 44
1.333333
  0
LWPOLYLINE
  5
3A
100
AcDbEntity
  8
LAYER22
370
    18
390
0
  6
Continuous
 62
     1
100
AcDbPolyline
 90
        4
 70
     1
 10
427.0
 20
-1432.0
 10
427.0
 20
1152.0
 10
1327.0
 20
1152.0
 10
1327.0
 20
-1432.0
  0
LWPOLYLINE
  5
3B
100
AcDbEntity
  8
LAYER22
370
    18
390
0
  6
Continuous
 62
     1
100
AcDbPolyline
 90
        4
 70
     1
 10
-473.0
 20
-1432.0
 10
-473.0
 20
1152.0
 10
427.0
 20
1152.0
 10
427.0
 20
-1432.0
  0
LWPOLYLINE
  5
3C
100
AcDbEntity
  8
LAYER22
370
    18
390
0
  6
Continuous
 62
     1
100
AcDbPolyline
 90
        4
 70
     1
 10
-523.0
 20
-1432.0
 10
-523.0
 20
1152.0
 10
-473.0
 20
1152.0
 10
-473.0
 20
-1432.0
  0
LWPOLYLINE
  5
3D
100
AcDbEntity
  8
LAYER22
370
    18
390
0
  6
Continuous
 62
     1
100
AcDbPolyline
 90
        4
 70
     1
 10
1327.0
 20
-1432.0
 10
1327.0
 20
1152.0
 10
2227.0
 20
1152.0
 10
2227.0
 20
-1432.0
  0
LWPOLYLINE
  5
3E
100
AcDbEntity
  8
LAYER22
370
    18
390
0
  6
Continuous
 62
     1
100
AcDbPolyline
 90
        4
 70
     1
 10
2227.0
 20
-1432.0
 10
2227.0
 20
1152.0
 10
2277.0
 20
1152.0
 10
2277.0
 20
-1432.0
  0
LWPOLYLINE
  5
3F
100
AcDbEntity
  8
LAYER22
370
    18
390
0
  6
Continuous
 62
     1
100
AcDbPolyline
 90
        4
 70
     1
 10
-523.0
 20
1165.0
 10
-523.0
 20
1248.0
 10
2277.0
 20
1248.0
 10
2277.0
 20
1165.0
  0
MTEXT
  5
40
100
AcDbEntity
  8
LAYER01
390
0
 62
     1
100
AcDbMText
 10
-1639.0
 20
1271.0
 30
0.0
 40
8.1
 41
0.0
 71
     7
 72
     1
  1
FLEXIO 85S
 11
1.0
 21
0.0
 31
0.0
 73
     1
 44
1.333333
  0
LWPOLYLINE
  5
41
100
AcDbEntity
  8
LAYER22
370
    25
390
0
  6
Continuous
 62
     2
100
AcDbPolyline
 90
       30
 70
     0
 10
408.5
 20
-1637.0
 10
408.5
 20
-1609.5
 10
422.5
 20
-1609.5
 42
-0.414214
 10
423.5
 20
-1610.5
 10
423.5
 20
-1613.75
 42
0.647625
 10
424.333374
 20
-1614.123169
 42
0.213431
 10
424.999969
 20
-1612.632568
 10
424.999878
 20
-1606.390869
 42
0.744972
 10
424.098907
 20
-1606.121582
 10
423.057129
 20
-1607.854492
 10
422.5
 20
-1607.700195
 10
422.499878
 20
-1600.100098
 10
423.057129
 20
-1599.945557
 10
424.078491
 20
-1601.645508
 42
0.776162
 10
425.000397
 20
-1601.40918
 10
425.0
 20
-1597.800049
 42
0.414214
 10
421.0
 20
-1593.800049
 10
417.615967
 20
-1593.800049
 42
0.217187
 10
416.110565
 20
-1594.48645
 42
0.629276
 10
416.499023
 20
-1595.300049
 10
421.0
 20
-1595.300049
 42
-0.378639
 10
423.48111
 20
-1597.493408
 42
-0.358301
 10
422.5
 20
-1598.300049
 42
0.414214
 10
421.0
 20
-1599.800049
 10
421.0
 20
-1608.0
 10
402.0
 20
-1608.0
 10
402.0
 20
-1609.5
 10
405.5
 20
-1609.5
 42
-0.414214
 10
406.5
 20
-1610.5
 10
406.5
 20
-1637.0
  0
LWPOLYLINE
  5
42
100
AcDbEntity
  8
LAYER22
370
    25
390
0
  6
Continuous
 62
     2
100
AcDbPolyline
 90
       30
 70
     0
 10
408.5
 20
-1637.0
 10
408.5
 20
-1664.5
 10
422.5
 20
-1664.5
 42
0.414214
 10
423.5
 20
-1663.5
 10
423.5
 20
-1660.25
 42
-0.647625
 10
424.333374
 20
-1659.876831
 42
-0.213431
 10
424.999969
 20
-1661.367432
 10
424.999878
 20
-1667.609131
 42
-0.744972
 10
424.098907
 20
-1667.878418
 10
423.057129
 20
-1666.145508
 10
422.5
 20
-1666.299805
 10
422.499878
 20
-1673.899902
 10
423.057129
 20
-1674.054443
 10
424.078491
 20
-1672.354492
 42
-0.776162
 10
425.000397
 20
-1672.59082
 10
425.0
 20
-1676.199951
 42
-0.414214
 10
421.0
 20
-1680.199951
 10
417.615967
 20
-1680.199951
 42
-0.217187
 10
416.110565
 20
-1679.51355
 42
-0.629276
 10
416.499023
 20
-1678.699951
 10
421.0
 20
-1678.699951
 42
0.378639
 10
423.48111
 20
-1676.506592
 42
0.358301
 10
422.5
 20
-1675.699951
 42
-0.414214
 10
421.0
 20
-1674.199951
 10
421.0
 20
-1666.0
 10
402.0
 20
-1666.0
 10
402.0
 20
-1664.5
 10
405.5
 20
-1664.5
 42
0.414214
 10
406.5
 20
-1663.5
 10
406.5
 20
-1637.0
  0
LWPOLYLINE
  5
43
100
AcDbEntity
  8
LAYER22
370
    18
390
0
  6
Continuous
 62
     1
100
AcDbPolyline
 90
        6
 70
     1
 10
408.5
 20
-1664.5
 10
422.5
 20
-1664.5
 42
0.414214
 10
423.5
 20
-1663.5
 10
423.5
 20
-1610.5
 42
0.414214
 10
422.5
 20
-1609.5
 10
408.5
 20
-1609.5
  0
LWPOLYLINE
  5
44
100
AcDbEntity
  8
LAYER22
370
    25
390
0
  6
Continuous
 62
     2
100
AcDbPolyline
 90
        4
 70
     1
 10
-467.0
 20
-1608.0
 10
-467.0
 20
-1595.5
 10
421.001953
 20
-1595.5
 10
421.001953
 20
-1608.0
  0
LWPOLYLINE
  5
45
100
AcDbEntity
  8
LAYER22
370
    25
390
0
  6
Continuous
 62
     2
100
AcDbPolyline
 90
        4
 70
     1
 10
-467.0
 20
-1666.0
 10
-467.0
 20
-1678.5
 10
421.001953
 20
-1678.5
 10
421.001953
 20
-1666.0
  0
LWPOLYLINE
  5
46
100
AcDbEntity
  8
LAYER22
370
    25
390
0
  6
Continuous
 62
     2
100
AcDbPolyline
 90
       30
 70
     0
 10
-454.5
 20
-1637.0
 10
-454.5
 20
-1609.5
 10
-468.5
 20
-1609.5
 42
0.414214
 10
-469.5
 20
-1610.5
 10
-469.5
 20
-1613.75
 42
-0.647625
 10
-470.333374
 20
-1614.123169
 42
-0.213431
 10
-470.999969
 20
-1612.632568
 10
-470.999878
 20
-1606.390869
 42
-0.744972
 10
-470.098907
 20
-1606.121582
 10
-469.057129
 20
-1607.854492
 10
-468.5
 20
-1607.700195
 10
-468.499878
 20
-1600.100098
 10
-469.057129
 20
-1599.945557
 10
-470.078491
 20
-1601.645508
 42
-0.776162
 10
-471.000397
 20
-1601.40918
 10
-471.0
 20
-1597.800049
 42
-0.414214
 10
-467.0
 20
-1593.800049
 10
-463.615967
 20
-1593.800049
 42
-0.217187
 10
-462.110565
 20
-1594.48645
 42
-0.629276
 10
-462.499023
 20
-1595.300049
 10
-467.0
 20
-1595.300049
 42
0.378639
 10
-469.48111
 20
-1597.493408
 42
0.358301
 10
-468.5
 20
-1598.300049
 42
-0.414214
 10
-467.0
 20
-1599.800049
 10
-467.0
 20
-1608.0
 10
-448.0
 20
-1608.0
 10
-448.0
 20
-1609.5
 10
-451.5
 20
-1609.5
 42
0.414214
 10
-452.5
 20
-1610.5
 10
-452.5
 20
-1637.0
  0
LWPOLYLINE
  5
47
100
AcDbEntity
  8
LAYER22
370
    25
390
0
  6
Continuous
 62
     2
100
AcDbPolyline
 90
       30
 70
     0
 10
-454.5
 20
-1637.0
 10
-454.5
 20
-1664.5
 10
-468.5
 20
-1664.5
 42
-0.414214
 10
-469.5
 20
-1663.5
 10
-469.5
 20
-1660.25
 42
0.647625
 10
-470.333374
 20
-1659.876831
 42
0.213431
 10
-470.999969
 20
-1661.367432
 10
-470.999878
 20
-1667.609131
 42
0.744972
 10
-470.098907
 20
-1667.878418
 10
-469.057129
 20
-1666.145508
 10
-468.5
 20
-1666.299805
 10
-468.499878
 20
-1673.899902
 10
-469.057129
 20
-1674.054443
 10
-470.078491
 20
-1672.354492
 42
0.776162
 10
-471.000397
 20
-1672.59082
 10
-471.0
 20
-1676.199951
 42
0.414214
 10
-467.0
 20
-1680.199951
 10
-463.615967
 20
-1680.199951
 42
0.217187
 10
-462.110565
 20
-1679.51355
 42
0.629276
 10
-462.499023
 20
-1678.699951
 10
-467.0
 20
-1678.699951
 42
-0.378639
 10
-469.48111
 20
-1676.506592
 42
-0.358301
 10
-468.5
 20
-1675.699951
 42
0.414214
 10
-467.0
 20
-1674.199951
 10
-467.0
 20
-1666.0
 10
-448.0
 20
-1666.0
 10
-448.0
 20
-1664.5
 10
-451.5
 20
-1664.5
 42
-0.414214
 10
-452.5
 20
-1663.5
 10
-452.5
 20
-1637.0
  0
LWPOLYLINE
  5
48
100
AcDbEntity
  8
LAYER22
370
    18
390
0
  6
Continuous
 62
     1
100
AcDbPolyline
 90
        6
 70
     1
 10
-454.5
 20
-1664.5
 10
-468.5
 20
-1664.5
 42
-0.414214
 10
-469.5
 20
-1663.5
 10
-469.5
 20
-1610.5
 42
-0.414214
 10
-468.5
 20
-1609.5
 10
-454.5
 20
-1609.5
  0
LWPOLYLINE
  5
49
100
AcDbEntity
  8
LAYER22
370
    25
390
0
  6
Continuous
 62
     2
100
AcDbPolyline
 90
       12
 70
     0
 10
-468.5
 20
-1670.099609
 10
-468.5
 20
-1666.299561
 10
-469.056641
 20
-1666.14502
 10
-470.078125
 20
-1667.844727
 42
-0.792023
 10
-470.997711
 20
-1667.589478
 10
-471.0
 20
-1665.349609
 42
1.0
 10
-473.0
 20
-1665.349609
 10
-473.0
 20
-1670.099609
 10
-472.5
 20
-1670.099609
 10
-472.5
 20
-1665.349609
 42
-1.0
 10
-471.5
 20
-1665.349609
 10
-471.5
 20
-1670.099609
  0
LWPOLYLINE
  5
4A
100
AcDbEntity
  8
LAYER22
370
    25
390
0
  6
Continuous
 62
     2
100
AcDbPolyline
 90
       12
 70
     0
 10
-468.5
 20
-1670.099609
 10
-468.5
 20
-1673.899414
 10
-469.056641
 20
-1674.053955
 10
-470.078125
 20
-1672.354004
 42
0.792023
 10
-470.997833
 20
-1672.609497
 10
-471.0
 20
-1674.849609
 42
-1.0
 10
-473.0
 20
-1674.849609
 10
-473.0
 20
-1670.099609
 10
-472.5
 20
-1670.099609
 10
-472.5
 20
-1674.849609
 42
1.0
 10
-471.5
 20
-1674.849609
 10
-471.5
 20
-1670.099609
  0
LWPOLYLINE
  5
4B
100
AcDbEntity
  8
LAYER22
370
    25
390
0
  6
Continuous
 62
     2
100
AcDbPolyline
 90
       12
 70
     0
 10
-468.5
 20
-1603.900391
 10
-468.5
 20
-1600.100342
 10
-469.056641
 20
-1599.945801
 10
-470.078125
 20
-1601.645508
 42
-0.792023
 10
-470.997711
 20
-1601.390259
 10
-471.0
 20
-1599.150391
 42
1.0
 10
-473.0
 20
-1599.150391
 10
-473.0
 20
-1603.900391
 10
-472.5
 20
-1603.900391
 10
-472.5
 20
-1599.150391
 42
-1.0
 10
-471.5
 20
-1599.150391
 10
-471.5
 20
-1603.900391
  0
LWPOLYLINE
  5
4C
100
AcDbEntity
  8
LAYER22
370
    25
390
0
  6
Continuous
 62
     2
100
AcDbPolyline
 90
       12
 70
     0
 10
-468.5
 20
-1603.900391
 10
-468.5
 20
-1607.700195
 10
-469.056641
 20
-1607.854736
 10
-470.078125
 20
-1606.154785
 42
0.792023
 10
-470.997833
 20
-1606.410278
 10
-471.0
 20
-1608.650391
 42
-1.0
 10
-473.0
 20
-1608.650391
 10
-473.0
 20
-1603.900391
 10
-472.5
 20
-1603.900391
 10
-472.5
 20
-1608.650391
 42
1.0
 10
-471.5
 20
-1608.650391
 10
-471.5
 20
-1603.900391
  0
LWPOLYLINE
  5
4D
100
AcDbEntity
  8
LAYER22
370
    25
390
0
  6
Continuous
 62
     2
100
AcDbPolyline
 90
       12
 70
     0
 10
422.5
 20
-1670.099609
 10
422.5
 20
-1666.299561
 10
423.056641
 20
-1666.14502
 10
424.078125
 20
-1667.844727
 42
0.792023
 10
424.997711
 20
-1667.589478
 10
425.0
 20
-1665.349609
 42
-1.0
 10
427.0
 20
-1665.349609
 10
427.0
 20
-1670.099609
 10
426.5
 20
-1670.099609
 10
426.5
 20
-1665.349609
 42
1.0
 10
425.5
 20
-1665.349609
 10
425.5
 20
-1670.099609
  0
LWPOLYLINE
  5
4E
100
AcDbEntity
  8
LAYER22
370
    25
390
0
  6
Continuous
 62
     2
100
AcDbPolyline
 90
       12
 70
     0
 10
422.5
 20
-1670.099609
 10
422.5
 20
-1673.899414
 10
423.056641
 20
-1674.053955
 10
424.078125
 20
-1672.354004
 42
-0.792023
 10
424.997833
 20
-1672.609497
 10
425.0
 20
-1674.849609
 42
1.0
 10
427.0
 20
-1674.849609
 10
427.0
 20
-1670.099609
 10
426.5
 20
-1670.099609
 10
426.5
 20
-1674.849609
 42
-1.0
 10
425.5
 20
-1674.849609
 10
425.5
 20
-1670.099609
  0
LWPOLYLINE
  5
4F
100
AcDbEntity
  8
LAYER22
370
    25
390
0
  6
Continuous
 62
     2
100
AcDbPolyline
 90
       12
 70
     0
 10
422.5
 20
-1603.900391
 10
422.5
 20
-1600.100342
 10
423.056641
 20
-1599.945801
 10
424.078125
 20
-1601.645508
 42
0.792023
 10
424.997711
 20
-1601.390259
 10
425.0
 20
-1599.150391
 42
-1.0
 10
427.0
 20
-1599.150391
 10
427.0
 20
-1603.900391
 10
426.5
 20
-1603.900391
 10
426.5
 20
-1599.150391
 42
1.0
 10
425.5
 20
-1599.150391
 10
425.5
 20
-1603.900391
  0
LWPOLYLINE
  5
50
100
AcDbEntity
  8
LAYER22
370
    25
390
0
  6
Continuous
 62
     2
100
AcDbPolyline
 90
       12
 70
     0
 10
422.5
 20
-1603.900391
 10
422.5
 20
-1607.700195
 10
423.056641
 20
-1607.854736
 10
424.078125
 20
-1606.154785
 42
-0.792023
 10
424.997833
 20
-1606.410278
 10
425.0
 20
-1608.650391
 42
1.0
 10
427.0
 20
-1608.650391
 10
427.0
 20
-1603.900391
 10
426.5
 20
-1603.900391
 10
426.5
 20
-1608.650391
 42
-1.0
 10
425.5
 20
-1608.650391
 10
425.5
 20
-1603.900391
  0
LWPOLYLINE
  5
51
100
AcDbEntity
  8
LAYER22
370
    25
390
0
  6
Continuous
 62
     2
100
AcDbPolyline
 90
       30
 70
     0
 10
1308.5
 20
-1637.0
 10
1308.5
 20
-1609.5
 10
1322.5
 20
-1609.5
 42
-0.414214
 10
1323.5
 20
-1610.5
 10
1323.5
 20
-1613.75
 42
0.647625
 10
1324.333374
 20
-1614.123169
 42
0.213431
 10
1325.0
 20
-1612.632568
 10
1324.999878
 20
-1606.390869
 42
0.744972
 10
1324.098877
 20
-1606.121582
 10
1323.057129
 20
-1607.854492
 10
1322.5
 20
-1607.700195
 10
1322.499878
 20
-1600.100098
 10
1323.057129
 20
-1599.945557
 10
1324.078491
 20
-1601.645508
 42
0.776162
 10
1325.000366
 20
-1601.40918
 10
1325.0
 20
-1597.800049
 42
0.414214
 10
1321.0
 20
-1593.800049
 10
1317.615967
 20
-1593.800049
 42
0.217187
 10
1316.110596
 20
-1594.48645
 42
0.629276
 10
1316.499023
 20
-1595.300049
 10
1321.0
 20
-1595.300049
 42
-0.378639
 10
1323.481079
 20
-1597.493408
 42
-0.358301
 10
1322.5
 20
-1598.300049
 42
0.414214
 10
1321.0
 20
-1599.800049
 10
1321.0
 20
-1608.0
 10
1302.0
 20
-1608.0
 10
1302.0
 20
-1609.5
 10
1305.5
 20
-1609.5
 42
-0.414214
 10
1306.5
 20
-1610.5
 10
1306.5
 20
-1637.0
  0
LWPOLYLINE
  5
52
100
AcDbEntity
  8
LAYER22
370
    25
390
0
  6
Continuous
 62
     2
100
AcDbPolyline
 90
       30
 70
     0
 10
1308.5
 20
-1637.0
 10
1308.5
 20
-1664.5
 10
1322.5
 20
-1664.5
 42
0.414214
 10
1323.5
 20
-1663.5
 10
1323.5
 20
-1660.25
 42
-0.647625
 10
1324.333374
 20
-1659.876831
 42
-0.213431
 10
1325.0
 20
-1661.367432
 10
1324.999878
 20
-1667.609131
 42
-0.744972
 10
1324.098877
 20
-1667.878418
 10
1323.057129
 20
-1666.145508
 10
1322.5
 20
-1666.299805
 10
1322.499878
 20
-1673.899902
 10
1323.057129
 20
-1674.054443
 10
1324.078491
 20
-1672.354492
 42
-0.776162
 10
1325.000366
 20
-1672.59082
 10
1325.0
 20
-1676.199951
 42
-0.414214
 10
1321.0
 20
-1680.199951
 10
1317.615967
 20
-1680.199951
 42
-0.217187
 10
1316.110596
 20
-1679.51355
 42
-0.629276
 10
1316.499023
 20
-1678.699951
 10
1321.0
 20
-1678.699951
 42
0.378639
 10
1323.481079
 20
-1676.506592
 42
0.358301
 10
1322.5
 20
-1675.699951
 42
-0.414214
 10
1321.0
 20
-1674.199951
 10
1321.0
 20
-1666.0
 10
1302.0
 20
-1666.0
 10
1302.0
 20
-1664.5
 10
1305.5
 20
-1664.5
 42
0.414214
 10
1306.5
 20
-1663.5
 10
1306.5
 20
-1637.0
  0
LWPOLYLINE
  5
53
100
AcDbEntity
  8
LAYER22
370
    18
390
0
  6
Continuous
 62
     1
100
AcDbPolyline
 90
        6
 70
     1
 10
1308.5
 20
-1664.5
 10
1322.5
 20
-1664.5
 42
0.414214
 10
1323.5
 20
-1663.5
 10
1323.5
 20
-1610.5
 42
0.414214
 10
1322.5
 20
-1609.5
 10
1308.5
 20
-1609.5
  0
LWPOLYLINE
  5
54
100
AcDbEntity
  8
LAYER22
370
    25
390
0
  6
Continuous
 62
     2
100
AcDbPolyline
 90
        4
 70
     1
 10
433.0
 20
-1608.0
 10
433.0
 20
-1595.5
 10
1321.001953
 20
-1595.5
 10
1321.001953
 20
-1608.0
  0
LWPOLYLINE
  5
55
100
AcDbEntity
  8
LAYER22
370
    25
390
0
  6
Continuous
 62
     2
100
AcDbPolyline
 90
        4
 70
     1
 10
433.0
 20
-1666.0
 10
433.0
 20
-1678.5
 10
1321.001953
 20
-1678.5
 10
1321.001953
 20
-1666.0
  0
LWPOLYLINE
  5
56
100
AcDbEntity
  8
LAYER22
370
    25
390
0
  6
Continuous
 62
     2
100
AcDbPolyline
 90
       30
 70
     0
 10
445.5
 20
-1637.0
 10
445.5
 20
-1609.5
 10
431.5
 20
-1609.5
 42
0.414214
 10
430.5
 20
-1610.5
 10
430.5
 20
-1613.75
 42
-0.647625
 10
429.666626
 20
-1614.123169
 42
-0.213431
 10
429.000031
 20
-1612.632568
 10
429.000122
 20
-1606.390869
 42
-0.744972
 10
429.901093
 20
-1606.121582
 10
430.942871
 20
-1607.854492
 10
431.5
 20
-1607.700195
 10
431.500122
 20
-1600.100098
 10
430.942871
 20
-1599.945557
 10
429.921509
 20
-1601.645508
 42
-0.776162
 10
428.999603
 20
-1601.40918
 10
429.0
 20
-1597.800049
 42
-0.414214
 10
433.0
 20
-1593.800049
 10
436.384033
 20
-1593.800049
 42
-0.217187
 10
437.889435
 20
-1594.48645
 42
-0.629276
 10
437.500977
 20
-1595.300049
 10
433.0
 20
-1595.300049
 42
0.378639
 10
430.51889
 20
-1597.493408
 42
0.358301
 10
431.5
 20
-1598.300049
 42
-0.414214
 10
433.0
 20
-1599.800049
 10
433.0
 20
-1608.0
 10
452.0
 20
-1608.0
 10
452.0
 20
-1609.5
 10
448.5
 20
-1609.5
 42
0.414214
 10
447.5
 20
-1610.5
 10
447.5
 20
-1637.0
  0
LWPOLYLINE
  5
57
100
AcDbEntity
  8
LAYER22
370
    25
390
0
  6
Continuous
 62
     2
100
AcDbPolyline
 90
       30
 70
     0
 10
445.5
 20
-1637.0
 10
445.5
 20
-1664.5
 10
431.5
 20
-1664.5
 42
-0.414214
 10
430.5
 20
-1663.5
 10
430.5
 20
-1660.25
 42
0.647625
 10
429.666626
 20
-1659.876831
 42
0.213431
 10
429.000031
 20
-1661.367432
 10
429.000122
 20
-1667.609131
 42
0.744972
 10
429.901093
 20
-1667.878418
 10
430.942871
 20
-1666.145508
 10
431.5
 20
-1666.299805
 10
431.500122
 20
-1673.899902
 10
430.942871
 20
-1674.054443
 10
429.921509
 20
-1672.354492
 42
0.776162
 10
428.999603
 20
-1672.59082
 10
429.0
 20
-1676.199951
 42
0.414214
 10
433.0
 20
-1680.199951
 10
436.384033
 20
-1680.199951
 42
0.217187
 10
437.889435
 20
-1679.51355
 42
0.629276
 10
437.500977
 20
-1678.699951
 10
433.0
 20
-1678.699951
 42
-0.378639
 10
430.51889
 20
-1676.506592
 42
-0.358301
 10
431.5
 20
-1675.699951
 42
0.414214
 10
433.0
 20
-1674.199951
 10
433.0
 20
-1666.0
 10
452.0
 20
-1666.0
 10
452.0
 20
-1664.5
 10
448.5
 20
-1664.5
 42
-0.414214
 10
447.5
 20
-1663.5
 10
447.5
 20
-1637.0
  0
LWPOLYLINE
  5
58
100
AcDbEntity
  8
LAYER22
370
    18
390
0
  6
Continuous
 62
     1
100
AcDbPolyline
 90
        6
 70
     1
 10
445.5
 20
-1664.5
 10
431.5
 20
-1664.5
 42
-0.414214
 10
430.5
 20
-1663.5
 10
430.5
 20
-1610.5
 42
-0.414214
 10
431.5
 20
-1609.5
 10
445.5
 20
-1609.5
  0
LWPOLYLINE
  5
59
100
AcDbEntity
  8
LAYER22
370
    25
390
0
  6
Continuous
 62
     2
100
AcDbPolyline
 90
       12
 70
     0
 10
431.5
 20
-1670.099609
 10
431.5
 20
-1666.299561
 10
430.943359
 20
-1666.14502
 10
429.921875
 20
-1667.844727
 42
-0.792023
 10
429.002289
 20
-1667.589478
 10
429.0
 20
-1665.349609
 42
1.0
 10
427.0
 20
-1665.349609
 10
427.0
 20
-1670.099609
 10
427.5
 20
-1670.099609
 10
427.5
 20
-1665.349609
 42
-1.0
 10
428.5
 20
-1665.349609
 10
428.5
 20
-1670.099609
  0
LWPOLYLINE
  5
5A
100
AcDbEntity
  8
LAYER22
370
    25
390
0
  6
Continuous
 62
     2
100
AcDbPolyline
 90
       12
 70
     0
 10
431.5
 20
-1670.099609
 10
431.5
 20
-1673.899414
 10
430.943359
 20
-1674.053955
 10
429.921875
 20
-1672.354004
 42
0.792023
 10
429.002167
 20
-1672.609497
 10
429.0
 20
-1674.849609
 42
-1.0
 10
427.0
 20
-1674.849609
 10
427.0
 20
-1670.099609
 10
427.5
 20
-1670.099609
 10
427.5
 20
-1674.849609
 42
1.0
 10
428.5
 20
-1674.849609
 10
428.5
 20
-1670.099609
  0
LWPOLYLINE
  5
5B
100
AcDbEntity
  8
LAYER22
370
    25
390
0
  6
Continuous
 62
     2
100
AcDbPolyline
 90
       12
 70
     0
 10
431.5
 20
-1603.900391
 10
431.5
 20
-1600.100342
 10
430.943359
 20
-1599.945801
 10
429.921875
 20
-1601.645508
 42
-0.792023
 10
429.002289
 20
-1601.390259
 10
429.0
 20
-1599.150391
 42
1.0
 10
427.0
 20
-1599.150391
 10
427.0
 20
-1603.900391
 10
427.5
 20
-1603.900391
 10
427.5
 20
-1599.150391
 42
-1.0
 10
428.5
 20
-1599.150391
 10
428.5
 20
-1603.900391
  0
LWPOLYLINE
  5
5C
100
AcDbEntity
  8
LAYER22
370
    25
390
0
  6
Continuous
 62
     2
100
AcDbPolyline
 90
       12
 70
     0
 10
431.5
 20
-1603.900391
 10
431.5
 20
-1607.700195
 10
430.943359
 20
-1607.854736
 10
429.921875
 20
-1606.154785
 42
0.792023
 10
429.002167
 20
-1606.410278
 10
429.0
 20
-1608.650391
 42
-1.0
 10
427.0
 20
-1608.650391
 10
427.0
 20
-1603.900391
 10
427.5
 20
-1603.900391
 10
427.5
 20
-1608.650391
 42
1.0
 10
428.5
 20
-1608.650391
 10
428.5
 20
-1603.900391
  0
LWPOLYLINE
  5
5D
100
AcDbEntity
  8
LAYER22
370
    25
390
0
  6
Continuous
 62
     2
100
AcDbPolyline
 90
       12
 70
     0
 10
1322.5
 20
-1670.099609
 10
1322.5
 20
-1666.299561
 10
1323.056641
 20
-1666.14502
 10
1324.078125
 20
-1667.844727
 42
0.792023
 10
1324.997681
 20
-1667.589478
 10
1325.0
 20
-1665.349609
 42
-1.0
 10
1327.0
 20
-1665.349609
 10
1327.0
 20
-1670.099609
 10
1326.5
 20
-1670.099609
 10
1326.5
 20
-1665.349609
 42
1.0
 10
1325.5
 20
-1665.349609
 10
1325.5
 20
-1670.099609
  0
LWPOLYLINE
  5
5E
100
AcDbEntity
  8
LAYER22
370
    25
390
0
  6
Continuous
 62
     2
100
AcDbPolyline
 90
       12
 70
     0
 10
1322.5
 20
-1670.099609
 10
1322.5
 20
-1673.899414
 10
1323.056641
 20
-1674.053955
 10
1324.078125
 20
-1672.354004
 42
-0.792023
 10
1324.997803
 20
-1672.609497
 10
1325.0
 20
-1674.849609
 42
1.0
 10
1327.0
 20
-1674.849609
 10
1327.0
 20
-1670.099609
 10
1326.5
 20
-1670.099609
 10
1326.5
 20
-1674.849609
 42
-1.0
 10
1325.5
 20
-1674.849609
 10
1325.5
 20
-1670.099609
  0
LWPOLYLINE
  5
5F
100
AcDbEntity
  8
LAYER22
370
    25
390
0
  6
Continuous
 62
     2
100
AcDbPolyline
 90
       12
 70
     0
 10
1322.5
 20
-1603.900391
 10
1322.5
 20
-1600.100342
 10
1323.056641
 20
-1599.945801
 10
1324.078125
 20
-1601.645508
 42
0.792023
 10
1324.997681
 20
-1601.390259
 10
1325.0
 20
-1599.150391
 42
-1.0
 10
1327.0
 20
-1599.150391
 10
1327.0
 20
-1603.900391
 10
1326.5
 20
-1603.900391
 10
1326.5
 20
-1599.150391
 42
1.0
 10
1325.5
 20
-1599.150391
 10
1325.5
 20
-1603.900391
  0
LWPOLYLINE
  5
60
100
AcDbEntity
  8
LAYER22
370
    25
390
0
  6
Continuous
 62
     2
100
AcDbPolyline
 90
       12
 70
     0
 10
1322.5
 20
-1603.900391
 10
1322.5
 20
-1607.700195
 10
1323.056641
 20
-1607.854736
 10
1324.078125
 20
-1606.154785
 42
-0.792023
 10
1324.997803
 20
-1606.410278
 10
1325.0
 20
-1608.650391
 42
1.0
 10
1327.0
 20
-1608.650391
 10
1327.0
 20
-1603.900391
 10
1326.5
 20
-1603.900391
 10
1326.5
 20
-1608.650391
 42
-1.0
 10
1325.5
 20
-1608.650391
 10
1325.5
 20
-1603.900391
  0
CIRCLE
  5
61
100
AcDbEntity
  8
LAYER22
390
0
  6
Continuous
 62
     1
100
AcDbCircle
 10
-473.0
 20
-1589.500732
 30
0.0
 40
4.0
  0
LWPOLYLINE
  5
62
100
AcDbEntity
  8
LAYER22
370
    18
390
0
  6
Continuous
 62
     1
100
AcDbPolyline
 90
       14
 70
     0
 10
-474.394531
 20
-1593.250488
 10
-473.0
 20
-1596.518799
 10
-473.0
 20
-1596.518799
 10
-473.0
 20
-1613.500732
 42
-0.414214
 10
-476.0
 20
-1616.500732
 10
-476.5
 20
-1616.500732
 10
-476.5
 20
-1614.500732
 10
-476.0
 20
-1614.500732
 42
0.414214
 10
-475.0
 20
-1613.500732
 10
-475.0
 20
-1596.500732
 10
-477.541016
 20
-1590.572998
 42
-0.237479
 10
-477.32019
 20
-1586.983032
 42
-1.727925
 10
-473.0
 20
-1594.500977
 10
-473.0
 20
-1593.500732
  0
LWPOLYLINE
  5
63
100
AcDbEntity
  8
LAYER22
370
    18
390
0
  6
Continuous
 62
     1
100
AcDbPolyline
 90
        8
 70
     1
 10
-473.0
 20
-1596.518799
 10
-471.0
 20
-1596.518799
 10
-471.0
 20
-1613.500732
 42
0.414214
 10
-470.0
 20
-1614.500732
 10
-469.5
 20
-1614.500732
 10
-469.5
 20
-1616.500732
 10
-470.0
 20
-1616.500732
 42
-0.414214
 10
-473.0
 20
-1613.500732
  0
CIRCLE
  5
64
100
AcDbEntity
  8
LAYER22
390
0
  6
Continuous
 62
     1
100
AcDbCircle
 10
427.0
 20
-1684.499268
 30
0.0
 40
4.0
  0
LWPOLYLINE
  5
65
100
AcDbEntity
  8
LAYER22
370
    18
390
0
  6
Continuous
 62
     1
100
AcDbPolyline
 90
       14
 70
     0
 10
428.394531
 20
-1680.749512
 10
427.0
 20
-1677.481201
 10
427.0
 20
-1677.481201
 10
427.0
 20
-1660.499268
 42
-0.414214
 10
430.0
 20
-1657.499268
 10
430.5
 20
-1657.499268
 10
430.5
 20
-1659.499268
 10
430.0
 20
-1659.499268
 42
0.414214
 10
429.0
 20
-1660.499268
 10
429.0
 20
-1677.499268
 10
431.541016
 20
-1683.427002
 42
-0.237479
 10
431.32019
 20
-1687.016968
 42
-1.727925
 10
427.0
 20
-1679.499023
 10
427.0
 20
-1680.499268
  0
LWPOLYLINE
  5
66
100
AcDbEntity
  8
LAYER22
370
    18
390
0
  6
Continuous
 62
     1
100
AcDbPolyline
 90
        8
 70
     1
 10
427.0
 20
-1677.481201
 10
425.0
 20
-1677.481201
 10
425.0
 20
-1660.499268
 42
0.414214
 10
424.0
 20
-1659.499268
 10
423.5
 20
-1659.499268
 10
423.5
 20
-1657.499268
 10
424.0
 20
-1657.499268
 42
-0.414214
 10
427.0
 20
-1660.499268
  0
CIRCLE
  5
67
100
AcDbEntity
  8
LAYER22
390
0
  6
Continuous
 62
     1
100
AcDbCircle
 10
1327.0
 20
-1589.500732
 30
0.0
 40
4.0
  0
LWPOLYLINE
  5
68
100
AcDbEntity
  8
LAYER22
370
    18
390
0
  6
Continuous
 62
     1
100
AcDbPolyline
 90
       14
 70
     0
 10
1325.605469
 20
-1593.250488
 10
1327.0
 20
-1596.518799
 10
1327.0
 20
-1596.518799
 10
1327.0
 20
-1613.500732
 42
-0.414214
 10
1324.0
 20
-1616.500732
 10
1323.5
 20
-1616.500732
 10
1323.5
 20
-1614.500732
 10
1324.0
 20
-1614.500732
 42
0.414214
 10
1325.0
 20
-1613.500732
 10
1325.0
 20
-1596.500732
 10
1322.458984
 20
-1590.572998
 42
-0.237479
 10
1322.67981
 20
-1586.983032
 42
-1.727925
 10
1327.0
 20
-1594.500977
 10
1327.0
 20
-1593.500732
  0
LWPOLYLINE
  5
69
100
AcDbEntity
  8
LAYER22
370
    18
390
0
  6
Continuous
 62
     1
100
AcDbPolyline
 90
        8
 70
     1
 10
1327.0
 20
-1596.518799
 10
1329.0
 20
-1596.518799
 10
1329.0
 20
-1613.500732
 42
0.414214
 10
1330.0
 20
-1614.500732
 10
1330.5
 20
-1614.500732
 10
1330.5
 20
-1616.500732
 10
1330.0
 20
-1616.500732
 42
-0.414214
 10
1327.0
 20
-1613.500732
  0
LWPOLYLINE
  5
6A
100
AcDbEntity
  8
LAYER22
370
    25
390
0
  6
Continuous
 62
     2
100
AcDbPolyline
 90
       30
 70
     0
 10
2247.900635
 20
-1637.000977
 10
2247.900635
 20
-1609.500977
 10
2233.900635
 20
-1609.500977
 42
0.414214
 10
2232.900635
 20
-1610.500977
 10
2232.900635
 20
-1613.750977
 42
-0.647683
 10
2232.067139
 20
-1614.124146
 42
-0.21342
 10
2231.400635
 20
-1612.633545
 10
2231.400635
 20
-1606.391846
 42
-0.744922
 10
2232.301758
 20
-1606.122681
 10
2233.343506
 20
-1607.855469
 10
2233.900635
 20
-1607.701172
 10
2233.900635
 20
-1600.101074
 10
2233.343506
 20
-1599.946533
 10
2232.322021
 20
-1601.646484
 42
-0.776162
 10
2231.400146
 20
-1601.410156
 10
2231.400635
 20
-1597.801025
 42
-0.414214
 10
2235.400635
 20
-1593.801025
 10
2259.784668
 20
-1593.801025
 42
-0.217187
 10
2261.290283
 20
-1594.487427
 42
-0.629276
 10
2260.901611
 20
-1595.301147
 10
2235.400635
 20
-1595.301025
 42
0.378639
 10
2232.919434
 20
-1597.494385
 42
0.358304
 10
2233.900635
 20
-1598.301025
 42
-0.414214
 10
2235.400635
 20
-1599.801025
 10
2235.400635
 20
-1608.000977
 10
2254.400635
 20
-1608.000977
 10
2254.400635
 20
-1609.500977
 10
2250.900635
 20
-1609.500977
 42
0.414214
 10
2249.900635
 20
-1610.500977
 10
2249.900635
 20
-1637.000977
  0
LWPOLYLINE
  5
6B
100
AcDbEntity
  8
LAYER22
370
    25
390
0
  6
Continuous
 62
     2
100
AcDbPolyline
 90
       30
 70
     0
 10
2247.900635
 20
-1637.000977
 10
2247.900635
 20
-1664.500977
 10
2233.900635
 20
-1664.500977
 42
-0.414214
 10
2232.900635
 20
-1663.500977
 10
2232.900635
 20
-1660.250977
 42
0.647683
 10
2232.067139
 20
-1659.877808
 42
0.21342
 10
2231.400635
 20
-1661.368408
 10
2231.400635
 20
-1667.610107
 42
0.744922
 10
2232.301758
 20
-1667.879272
 10
2233.343506
 20
-1666.146484
 10
2233.900635
 20
-1666.300781
 10
2233.900635
 20
-1673.900879
 10
2233.343506
 20
-1674.05542
 10
2232.322021
 20
-1672.355469
 42
0.776162
 10
2231.400146
 20
-1672.591797
 10
2231.400635
 20
-1676.200928
 42
0.414214
 10
2235.400635
 20
-1680.200928
 10
2259.784668
 20
-1680.200928
 42
0.217187
 10
2261.290283
 20
-1679.514526
 42
0.629276
 10
2260.901611
 20
-1678.700806
 10
2235.400635
 20
-1678.700928
 42
-0.378639
 10
2232.919434
 20
-1676.507568
 42
-0.358304
 10
2233.900635
 20
-1675.700928
 42
0.414214
 10
2235.400635
 20
-1674.200928
 10
2235.400635
 20
-1666.000977
 10
2254.400635
 20
-1666.000977
 10
2254.400635
 20
-1664.500977
 10
2250.900635
 20
-1664.500977
 42
-0.414214
 10
2249.900635
 20
-1663.500977
 10
2249.900635
 20
-1637.000977
  0
LWPOLYLINE
  5
6C
100
AcDbEntity
  8
LAYER22
370
    18
390
0
  6
Continuous
 62
     1
100
AcDbPolyline
 90
        6
 70
     1
 10
2247.900635
 20
-1664.500977
 10
2233.900635
 20
-1664.500977
 42
-0.414214
 10
2232.900635
 20
-1663.500977
 10
2232.900635
 20
-1610.500977
 42
-0.414214
 10
2233.900635
 20
-1609.500977
 10
2247.900635
 20
-1609.500977
  0
LWPOLYLINE
  5
6D
100
AcDbEntity
  8
LAYER22
370
    25
390
0
  6
Continuous
 62
     2
100
AcDbPolyline
 90
       21
 70
     0
 10
2275.0
 20
-1637.000977
 10
2275.0
 20
-1617.750977
 10
2276.25
 20
-1617.750977
 42
1.0
 10
2276.25
 20
-1616.250977
 10
2275.0
 20
-1616.250977
 10
2275.0
 20
-1597.500977
 10
2276.25
 20
-1597.500977
 42
1.0
 10
2276.25
 20
-1596.000977
 10
2247.75
 20
-1596.000977
 42
1.0
 10
2247.75
 20
-1597.500977
 10
2251.5
 20
-1597.500977
 10
2251.5
 20
-1604.750977
 42
1.0
 10
2253.0
 20
-1604.750977
 10
2253.0
 20
-1597.500977
 10
2258.998291
 20
-1597.500977
 10
2259.0
 20
-1604.750977
 42
1.0
 10
2260.5
 20
-1604.750977
 10
2260.5
 20
-1597.500977
 10
2272.0
 20
-1597.500977
 42
-0.414214
 10
2273.0
 20
-1598.500977
 10
2273.0
 20
-1637.000977
  0
LWPOLYLINE
  5
6E
100
AcDbEntity
  8
LAYER22
370
    25
390
0
  6
Continuous
 62
     2
100
AcDbPolyline
 90
       21
 70
     0
 10
2275.0
 20
-1637.000977
 10
2275.0
 20
-1656.250977
 10
2276.25
 20
-1656.250977
 42
-1.0
 10
2276.25
 20
-1657.750977
 10
2275.0
 20
-1657.750977
 10
2275.0
 20
-1676.500977
 10
2276.25
 20
-1676.500977
 42
-1.0
 10
2276.25
 20
-1678.000977
 10
2247.75
 20
-1678.000977
 42
-1.0
 10
2247.75
 20
-1676.500977
 10
2251.5
 20
-1676.500977
 10
2251.5
 20
-1669.250977
 42
-1.0
 10
2253.0
 20
-1669.250977
 10
2253.0
 20
-1676.500977
 10
2258.998291
 20
-1676.500977
 10
2259.0
 20
-1669.250977
 42
-1.0
 10
2260.5
 20
-1669.250977
 10
2260.5
 20
-1676.500977
 10
2272.0
 20
-1676.500977
 42
0.414214
 10
2273.0
 20
-1675.500977
 10
2273.0
 20
-1637.000977
  0
LWPOLYLINE
  5
6F
100
AcDbEntity
  8
LAYER22
370
    25
390
0
  6
Continuous
 62
     2
100
AcDbPolyline
 90
       12
 70
     1
 10
2231.400391
 20
-1689.25
 42
-0.414214
 10
2230.900391
 20
-1689.75
 10
2201.900391
 20
-1689.75
 42
-0.414214
 10
2201.400391
 20
-1689.25
 10
2201.400391
 20
-1687.25
 42
-0.414214
 10
2201.900391
 20
-1686.75
 10
2226.400391
 20
-1686.75
 42
0.414214
 10
2228.400391
 20
-1684.75
 10
2228.400391
 20
-1660.25
 42
-0.414214
 10
2228.900391
 20
-1659.75
 10
2230.900391
 20
-1659.75
 42
-0.414214
 10
2231.400391
 20
-1660.25
  0
LWPOLYLINE
  5
70
100
AcDbEntity
  8
LAYER22
370
    25
390
0
  6
Continuous
 62
     2
100
AcDbPolyline
 90
       12
 70
     0
 10
2205.900391
 20
-1686.75
 10
2201.900391
 20
-1686.75
 10
2201.900391
 20
-1682.75
 42
-1.0
 10
2209.900391
 20
-1682.75
 10
2209.900391
 20
-1686.75
 10
2205.900391
 20
-1686.75
 10
2205.900391
 20
-1685.25
 10
2208.400391
 20
-1685.25
 10
2208.400391
 20
-1682.75
 42
1.0
 10
2203.400391
 20
-1682.75
 10
2203.400391
 20
-1685.25
 10
2205.900391
 20
-1685.25
  0
LWPOLYLINE
  5
71
100
AcDbEntity
  8
LAYER22
370
    25
390
0
  6
Continuous
 62
     2
100
AcDbPolyline
 90
       12
 70
     0
 10
2213.900391
 20
-1686.75
 10
2209.900391
 20
-1686.75
 10
2209.900391
 20
-1682.75
 42
-1.0
 10
2217.900391
 20
-1682.75
 10
2217.900391
 20
-1686.75
 10
2213.900391
 20
-1686.75
 10
2213.900391
 20
-1685.25
 10
2216.400391
 20
-1685.25
 10
2216.400391
 20
-1682.75
 42
1.0
 10
2211.400391
 20
-1682.75
 10
2211.400391
 20
-1685.25
 10
2213.900391
 20
-1685.25
  0
LWPOLYLINE
  5
72
100
AcDbEntity
  8
LAYER22
370
    25
390
0
  6
Continuous
 62
     2
100
AcDbPolyline
 90
       30
 70
     0
 10
-491.5
 20
-1637.0
 10
-491.5
 20
-1664.5
 10
-477.5
 20
-1664.5
 42
0.414214
 10
-476.5
 20
-1663.5
 10
-476.5
 20
-1660.25
 42
-0.647683
 10
-475.666626
 20
-1659.876831
 42
-0.21342
 10
-475.000031
 20
-1661.367432
 10
-475.0
 20
-1667.609131
 42
-0.744922
 10
-475.901001
 20
-1667.878296
 10
-476.942871
 20
-1666.145508
 10
-477.5
 20
-1666.299805
 10
-477.5
 20
-1673.899902
 10
-476.942871
 20
-1674.054443
 10
-475.921387
 20
-1672.354492
 42
-0.776162
 10
-474.999481
 20
-1672.59082
 10
-475.0
 20
-1676.199951
 42
-0.414214
 10
-479.0
 20
-1680.199951
 10
-503.384033
 20
-1680.199951
 42
-0.217187
 10
-504.889557
 20
-1679.51355
 42
-0.629276
 10
-504.500977
 20
-1678.699829
 10
-479.0
 20
-1678.699951
 42
0.378639
 10
-476.51889
 20
-1676.506592
 42
0.358304
 10
-477.5
 20
-1675.699951
 42
-0.414214
 10
-479.0
 20
-1674.199951
 10
-479.0
 20
-1666.0
 10
-498.0
 20
-1666.0
 10
-498.0
 20
-1664.5
 10
-494.5
 20
-1664.5
 42
0.414214
 10
-493.5
 20
-1663.5
 10
-493.5
 20
-1637.0
  0
LWPOLYLINE
  5
73
100
AcDbEntity
  8
LAYER22
370
    25
390
0
  6
Continuous
 62
     2
100
AcDbPolyline
 90
       30
 70
     0
 10
-491.5
 20
-1637.0
 10
-491.5
 20
-1609.5
 10
-477.5
 20
-1609.5
 42
-0.414214
 10
-476.5
 20
-1610.5
 10
-476.5
 20
-1613.75
 42
0.647683
 10
-475.666626
 20
-1614.123169
 42
0.21342
 10
-475.000031
 20
-1612.632568
 10
-475.0
 20
-1606.390869
 42
0.744922
 10
-475.901001
 20
-1606.121704
 10
-476.942871
 20
-1607.854492
 10
-477.5
 20
-1607.700195
 10
-477.5
 20
-1600.100098
 10
-476.942871
 20
-1599.945557
 10
-475.921387
 20
-1601.645508
 42
0.776162
 10
-474.999481
 20
-1601.40918
 10
-475.0
 20
-1597.800049
 42
0.414214
 10
-479.0
 20
-1593.800049
 10
-503.384033
 20
-1593.800049
 42
0.217187
 10
-504.889557
 20
-1594.48645
 42
0.629276
 10
-504.500977
 20
-1595.300171
 10
-479.0
 20
-1595.300049
 42
-0.378639
 10
-476.51889
 20
-1597.493408
 42
-0.358304
 10
-477.5
 20
-1598.300049
 42
0.414214
 10
-479.0
 20
-1599.800049
 10
-479.0
 20
-1608.0
 10
-498.0
 20
-1608.0
 10
-498.0
 20
-1609.5
 10
-494.5
 20
-1609.5
 42
-0.414214
 10
-493.5
 20
-1610.5
 10
-493.5
 20
-1637.0
  0
LWPOLYLINE
  5
74
100
AcDbEntity
  8
LAYER22
370
    18
390
0
  6
Continuous
 62
     1
100
AcDbPolyline
 90
        6
 70
     1
 10
-491.5
 20
-1609.5
 10
-477.5
 20
-1609.5
 42
-0.414214
 10
-476.5
 20
-1610.5
 10
-476.5
 20
-1663.5
 42
-0.414214
 10
-477.5
 20
-1664.5
 10
-491.5
 20
-1664.5
  0
LWPOLYLINE
  5
75
100
AcDbEntity
  8
LAYER22
370
    25
390
0
  6
Continuous
 62
     2
100
AcDbPolyline
 90
       21
 70
     0
 10
-521.0
 20
-1637.0
 10
-521.0
 20
-1656.25
 10
-522.25
 20
-1656.25
 42
1.0
 10
-522.25
 20
-1657.75
 10
-521.0
 20
-1657.75
 10
-521.0
 20
-1676.5
 10
-522.25
 20
-1676.5
 42
1.0
 10
-522.25
 20
-1678.0
 10
-493.75
 20
-1678.0
 42
1.0
 10
-493.75
 20
-1676.5
 10
-497.5
 20
-1676.5
 10
-497.5
 20
-1669.25
 42
1.0
 10
-499.0
 20
-1669.25
 10
-499.0
 20
-1676.5
 10
-504.998291
 20
-1676.5
 10
-505.0
 20
-1669.25
 42
1.0
 10
-506.5
 20
-1669.25
 10
-506.5
 20
-1676.5
 10
-518.0
 20
-1676.5
 42
-0.414214
 10
-519.0
 20
-1675.5
 10
-519.0
 20
-1637.0
  0
LWPOLYLINE
  5
76
100
AcDbEntity
  8
LAYER22
370
    25
390
0
  6
Continuous
 62
     2
100
AcDbPolyline
 90
       21
 70
     0
 10
-521.0
 20
-1637.0
 10
-521.0
 20
-1617.75
 10
-522.25
 20
-1617.75
 42
-1.0
 10
-522.25
 20
-1616.25
 10
-521.0
 20
-1616.25
 10
-521.0
 20
-1597.5
 10
-522.25
 20
-1597.5
 42
-1.0
 10
-522.25
 20
-1596.0
 10
-493.75
 20
-1596.0
 42
-1.0
 10
-493.75
 20
-1597.5
 10
-497.5
 20
-1597.5
 10
-497.5
 20
-1604.75
 42
-1.0
 10
-499.0
 20
-1604.75
 10
-499.0
 20
-1597.5
 10
-504.998291
 20
-1597.5
 10
-505.0
 20
-1604.75
 42
-1.0
 10
-506.5
 20
-1604.75
 10
-506.5
 20
-1597.5
 10
-518.0
 20
-1597.5
 42
0.414214
 10
-519.0
 20
-1598.5
 10
-519.0
 20
-1637.0
  0
LWPOLYLINE
  5
77
100
AcDbEntity
  8
LAYER22
370
    13
390
0
  6
Continuous
 62
     5
100
AcDbPolyline
 90
        2
 70
     0
 10
427.0
 20
-1559.746094
 10
1327.0
 20
-1559.746094
  0
LWPOLYLINE
  5
78
100
AcDbEntity
  8
LAYER22
370
    18
390
0
  6
Continuous
 62
     1
100
AcDbPolyline
 90
        2
 70
     0
 10
426.999969
 20
-1557.246094
 10
426.999969
 20
-1567.246094
  0
LWPOLYLINE
  5
79
100
AcDbEntity
  8
LAYER22
370
    18
390
0
  6
Continuous
 62
     1
100
AcDbPolyline
 90
        2
 70
     0
 10
1327.0
 20
-1557.246094
 10
1327.0
 20
-1567.246094
  0
MTEXT
  5
7A
100
AcDbEntity
  8
LAYER22
390
0
 62
     2
100
AcDbMText
 10
877.0
 20
-1555.579468
 30
0.0
 40
11.25
 41
0.0
 71
     8
 72
     1
  1
900
 11
1.0
 21
0.0
 31
0.0
 73
     1
 44
1.333333
  0
LWPOLYLINE
  5
7B
100
AcDbEntity
  8
LAYER22
370
    13
390
0
  6
Continuous
 62
     5
100
AcDbPolyline
 90
        2
 70
     0
 10
1327.0
 20
-1559.746094
 10
2227.0
 20
-1559.746094
  0
LWPOLYLINE
  5
7C
100
AcDbEntity
  8
LAYER22
370
    18
390
0
  6
Continuous
 62
     1
100
AcDbPolyline
 90
        2
 70
     0
 10
1327.0
 20
-1557.246094
 10
1327.0
 20
-1567.246094
  0
LWPOLYLINE
  5
7D
100
AcDbEntity
  8
LAYER22
370
    18
390
0
  6
Continuous
 62
     1
100
AcDbPolyline
 90
        2
 70
     0
 10
2227.0
 20
-1557.246094
 10
2227.0
 20
-1567.246094
  0
MTEXT
  5
7E
100
AcDbEntity
  8
LAYER22
390
0
 62
     2
100
AcDbMText
 10
1777.0
 20
-1555.579468
 30
0.0
 40
11.25
 41
0.0
 71
     8
 72
     1
  1
900
 11
1.0
 21
0.0
 31
0.0
 73
     1
 44
1.333333
  0
LWPOLYLINE
  5
7F
100
AcDbEntity
  8
LAYER22
370
    13
390
0
  6
Continuous
 62
     5
100
AcDbPolyline
 90
        2
 70
     0
 10
2227.0
 20
-1559.746094
 10
2277.0
 20
-1559.746094
  0
LWPOLYLINE
  5
80
100
AcDbEntity
  8
LAYER22
370
    18
390
0
  6
Continuous
 62
     1
100
AcDbPolyline
 90
        2
 70
     0
 10
2227.0
 20
-1557.246094
 10
2227.0
 20
-1567.246094
  0
LWPOLYLINE
  5
81
100
AcDbEntity
  8
LAYER22
370
    18
390
0
  6
Continuous
 62
     1
100
AcDbPolyline
 90
        2
 70
     0
 10
2277.0
 20
-1557.246094
 10
2277.0
 20
-1567.246094
  0
MTEXT
  5
82
100
AcDbEntity
  8
LAYER22
390
0
 62
     2
100
AcDbMText
 10
2252.0
 20
-1555.579468
 30
0.0
 40
11.25
 41
0.0
 71
     8
 72
     1
  1
50
 11
1.0
 21
0.0
 31
0.0
 73
     1
 44
1.333333
  0
LWPOLYLINE
  5
83
100
AcDbEntity
  8
LAYER22
370
    25
390
0
  6
Continuous
 62
     2
100
AcDbPolyline
 90
       38
 70
     0
 10
-2051.0
 20
1248.0
 10
-1993.0
 20
1248.0
 10
-1992.5
 20
1247.5
 10
-1992.5
 20
1208.5
 10
-1993.0
 20
1208.0
 10
-1994.5
 20
1208.0
 10
-1995.0
 20
1208.5
 10
-1995.0
 20
1242.0
 42
0.414214
 10
-1997.0
 20
1244.0
 10
-2010.0
 20
1244.0
 42
0.414214
 10
-2012.0
 20
1242.0
 10
-2012.0
 20
1198.5
 10
-2012.5
 20
1198.0
 10
-2041.5
 20
1198.0
 10
-2042.0
 20
1198.5
 10
-2042.0
 20
1205.0
 10
-2041.5
 20
1205.5
 10
-2040.0
 20
1205.5
 10
-2039.5
 20
1205.0
 10
-2039.5
 20
1203.5
 42
0.414214
 10
-2037.5
 20
1201.5
 10
-2020.5
 20
1201.5
 42
0.414214
 10
-2018.5
 20
1203.5
 10
-2018.5
 20
1205.5
 10
-2015.5
 20
1208.5
 10
-2015.5
 20
1235.0
 10
-2018.5
 20
1238.0
 10
-2018.5
 20
1242.0
 42
0.414214
 10
-2020.5
 20
1244.0
 10
-2037.5
 20
1244.0
 42
0.414214
 10
-2039.5
 20
1242.0
 10
-2039.5
 20
1238.5
 10
-2040.0
 20
1238.0
 10
-2041.5
 20
1238.0
 10
-2042.0
 20
1238.5
 10
-2042.0
 20
1243.5
 10
-2042.5
 20
1244.0
 10
-2051.0
 20
1244.0
  0
LWPOLYLINE
  5
84
100
AcDbEntity
  8
LAYER22
370
    25
390
0
  6
Continuous
 62
     2
100
AcDbPolyline
 90
       38
 70
     0
 10
-2051.0
 20
1248.0
 10
-2109.0
 20
1248.0
 10
-2109.5
 20
1247.5
 10
-2109.5
 20
1208.5
 10
-2109.0
 20
1208.0
 10
-2107.5
 20
1208.0
 10
-2107.0
 20
1208.5
 10
-2107.0
 20
1242.0
 42
-0.414214
 10
-2105.0
 20
1244.0
 10
-2092.0
 20
1244.0
 42
-0.414214
 10
-2090.0
 20
1242.0
 10
-2090.0
 20
1198.5
 10
-2089.5
 20
1198.0
 10
-2060.5
 20
1198.0
 10
-2060.0
 20
1198.5
 10
-2060.0
 20
1205.0
 10
-2060.5
 20
1205.5
 10
-2062.0
 20
1205.5
 10
-2062.5
 20
1205.0
 10
-2062.5
 20
1203.5
 42
-0.414214
 10
-2064.5
 20
1201.5
 10
-2081.5
 20
1201.5
 42
-0.414214
 10
-2083.5
 20
1203.5
 10
-2083.5
 20
1205.5
 10
-2086.5
 20
1208.5
 10
-2086.5
 20
1235.0
 10
-2083.5
 20
1238.0
 10
-2083.5
 20
1242.0
 42
-0.414214
 10
-2081.5
 20
1244.0
 10
-2064.5
 20
1244.0
 42
-0.414214
 10
-2062.5
 20
1242.0
 10
-2062.5
 20
1238.5
 10
-2062.0
 20
1238.0
 10
-2060.5
 20
1238.0
 10
-2060.0
 20
1238.5
 10
-2060.0
 20
1243.5
 10
-2059.5
 20
1244.0
 10
-2051.0
 20
1244.0
  0
LWPOLYLINE
  5
85
100
AcDbEntity
  8
LAYER22
370
    18
390
0
  6
Continuous
 62
     1
100
AcDbPolyline
 90
        8
 70
     1
 10
-2073.0
 20
1230.899902
 10
-2072.400391
 20
1231.5
 10
-2064.599609
 20
1231.5
 10
-2064.0
 20
1230.899902
 10
-2064.0
 20
1202.100098
 10
-2064.599609
 20
1201.5
 10
-2072.400391
 20
1201.5
 10
-2073.0
 20
1202.100098
  0
LWPOLYLINE
  5
86
100
AcDbEntity
  8
LAYER22
370
    18
390
0
  6
Continuous
 62
     1
100
AcDbPolyline
 90
        8
 70
     1
 10
-2073.0
 20
1208.5
 10
-2074.5
 20
1208.5
 10
-2074.5
 20
1211.5
 10
-2075.5
 20
1211.5
 10
-2075.5
 20
1221.5
 10
-2074.5
 20
1221.5
 10
-2074.5
 20
1224.5
 10
-2073.0
 20
1224.5
  0
LWPOLYLINE
  5
87
100
AcDbEntity
  8
LAYER22
370
    18
390
0
  6
Continuous
 62
     1
100
AcDbPolyline
 90
        4
 70
     1
 10
-2064.0
 20
1224.0
 10
-2061.0
 20
1224.0
 10
-2061.0
 20
1209.0
 10
-2064.0
 20
1209.0
  0
LWPOLYLINE
  5
88
100
AcDbEntity
  8
LAYER22
370
    18
390
0
  6
Continuous
 62
     1
100
AcDbPolyline
 90
        4
 70
     1
 10
-2061.0
 20
1206.5
 10
-2061.0
 20
1226.5
 10
-2041.0
 20
1226.5
 10
-2041.0
 20
1206.5
  0
LWPOLYLINE
  5
89
100
AcDbEntity
  8
LAYER22
370
    18
390
0
  6
Continuous
 62
     1
100
AcDbPolyline
 90
        6
 70
     1
 10
-2061.550781
 20
1228.453125
 10
-2061.550781
 20
1234.452637
 10
-2058.912109
 20
1235.953125
 10
-2043.087891
 20
1235.953125
 10
-2040.449219
 20
1234.453125
 10
-2040.449219
 20
1228.453125
  0
LWPOLYLINE
  5
8A
100
AcDbEntity
  8
LAYER22
370
    18
390
0
  6
Continuous
 62
     1
100
AcDbPolyline
 90
        5
 70
     0
 10
-2058.912109
 20
1235.953125
 10
-2056.275391
 20
1234.453125
 10
-2051.0
 20
1235.953125
 10
-2045.724609
 20
1234.453125
 10
-2043.087891
 20
1235.953125
  0
LWPOLYLINE
  5
8B
100
AcDbEntity
  8
LAYER22
370
    18
390
0
  6
Continuous
 62
     1
100
AcDbPolyline
 90
        2
 70
     0
 10
-2056.275391
 20
1234.453125
 10
-2056.275391
 20
1228.453125
  0
LWPOLYLINE
  5
8C
100
AcDbEntity
  8
LAYER22
370
    18
390
0
  6
Continuous
 62
     1
100
AcDbPolyline
 90
        2
 70
     0
 10
-2045.724609
 20
1234.453125
 10
-2045.724609
 20
1228.453125
  0
LWPOLYLINE
  5
8D
100
AcDbEntity
  8
LAYER22
370
    18
390
0
  6
Continuous
 62
     1
100
AcDbPolyline
 90
        6
 70
     1
 10
-2062.423828
 20
1226.5
 10
-2062.636719
 20
1227.845703
 10
-2057.099609
 20
1228.453125
 10
-2044.900391
 20
1228.453125
 10
-2039.363281
 20
1227.845703
 10
-2039.576172
 20
1226.5
  0
LWPOLYLINE
  5
8E
100
AcDbEntity
  8
LAYER22
370
    18
390
0
  6
Continuous
 62
     1
100
AcDbPolyline
 90
        8
 70
     1
 10
-2058.599609
 20
1195.5
 10
-2059.0
 20
1195.899902
 10
-2059.0
 20
1205.100098
 10
-2058.599609
 20
1205.5
 10
-2043.400391
 20
1205.5
 10
-2043.0
 20
1205.100098
 10
-2043.0
 20
1195.899902
 10
-2043.400391
 20
1195.5
  0
LWPOLYLINE
  5
8F
100
AcDbEntity
  8
LAYER22
370
    18
390
0
  6
Continuous
 62
     1
100
AcDbPolyline
 90
        4
 70
     1
 10
-2057.0
 20
1206.5
 10
-2045.0
 20
1206.5
 10
-2045.0
 20
1205.5
 10
-2057.0
 20
1205.5
  0
LWPOLYLINE
  5
90
100
AcDbEntity
  8
LAYER22
370
    18
390
0
  6
Continuous
 62
     1
100
AcDbPolyline
 90
        4
 70
     1
 10
-2058.0
 20
1195.5
 10
-2044.0
 20
1195.5
 10
-2044.0
 20
1194.5
 10
-2058.0
 20
1194.5
  0
LWPOLYLINE
  5
91
100
AcDbEntity
  8
LAYER22
370
    18
390
0
  6
Continuous
 62
     1
100
AcDbPolyline
 90
        4
 70
     1
 10
-2057.0
 20
1194.5
 10
-2045.0
 20
1194.5
 10
-2045.0
 20
1192.5
 10
-2057.0
 20
1192.5
  0
LWPOLYLINE
  5
92
100
AcDbEntity
  8
LAYER22
370
    18
390
0
  6
Continuous
 62
     1
100
AcDbPolyline
 90
        4
 70
     1
 10
-2046.0
 20
1192.5
 10
-2046.0
 20
1147.899902
 10
-2056.0
 20
1147.899902
 10
-2056.0
 20
1192.5
  0
LWPOLYLINE
  5
93
100
AcDbEntity
  8
LAYER22
370
    18
390
0
  6
Continuous
 62
     1
100
AcDbPolyline
 90
        8
 70
     1
 10
-2029.0
 20
1230.899902
 10
-2029.599609
 20
1231.5
 10
-2037.400391
 20
1231.5
 10
-2038.0
 20
1230.899902
 10
-2038.0
 20
1202.100098
 10
-2037.400391
 20
1201.5
 10
-2029.599609
 20
1201.5
 10
-2029.0
 20
1202.100098
  0
LWPOLYLINE
  5
94
100
AcDbEntity
  8
LAYER22
370
    18
390
0
  6
Continuous
 62
     1
100
AcDbPolyline
 90
        8
 70
     1
 10
-2029.0
 20
1208.5
 10
-2027.5
 20
1208.5
 10
-2027.5
 20
1211.5
 10
-2026.5
 20
1211.5
 10
-2026.5
 20
1221.5
 10
-2027.5
 20
1221.5
 10
-2027.5
 20
1224.5
 10
-2029.0
 20
1224.5
  0
LWPOLYLINE
  5
95
100
AcDbEntity
  8
LAYER22
370
    18
390
0
  6
Continuous
 62
     1
100
AcDbPolyline
 90
        4
 70
     1
 10
-2038.0
 20
1224.0
 10
-2041.0
 20
1224.0
 10
-2041.0
 20
1209.0
 10
-2038.0
 20
1209.0
  0
LWPOLYLINE
  5
96
100
AcDbEntity
  8
LAYER22
370
    25
390
0
  6
Continuous
 62
     2
100
AcDbPolyline
 90
        9
 70
     1
 10
-2011.0
 20
1226.0
 10
-1995.0
 20
1226.0
 10
-1995.0
 20
1173.066406
 10
-1996.0
 20
1173.0
 42
-0.414214
 10
-2003.0
 20
1166.0
 10
-2003.0
 20
1165.0
 10
-2040.0
 20
1165.0
 10
-2040.0
 20
1181.0
 10
-2011.0
 20
1181.0
  0
LWPOLYLINE
  5
97
100
AcDbEntity
  8
LAYER22
370
    25
390
0
  6
Continuous
 62
     2
100
AcDbPolyline
 90
        9
 70
     1
 10
-2091.0
 20
1226.0
 10
-2107.0
 20
1226.0
 10
-2107.0
 20
1173.066406
 10
-2106.0
 20
1173.0
 42
0.414214
 10
-2099.0
 20
1166.0
 10
-2099.0
 20
1165.0
 10
-2062.0
 20
1165.0
 10
-2062.0
 20
1181.0
 10
-2091.0
 20
1181.0
  0
LWPOLYLINE
  5
98
100
AcDbEntity
  8
LAYER22
370
    25
390
0
  6
Continuous
 62
     2
100
AcDbPolyline
 90
       30
 70
     0
 10
-2051.0
 20
1132.899902
 10
-2023.5
 20
1132.899902
 10
-2023.5
 20
1146.899902
 42
0.414214
 10
-2024.5
 20
1147.899902
 10
-2027.75
 20
1147.899902
 42
-0.647625
 10
-2028.123169
 20
1148.733276
 42
-0.213431
 10
-2026.632568
 20
1149.399902
 10
-2020.390869
 20
1149.39978
 42
-0.744972
 10
-2020.121582
 20
1148.498779
 10
-2021.854492
 20
1147.457031
 10
-2021.700195
 20
1146.899902
 10
-2014.100098
 20
1146.89978
 10
-2013.945557
 20
1147.457031
 10
-2015.645508
 20
1148.478394
 42
-0.776162
 10
-2015.40918
 20
1149.400269
 10
-2011.800049
 20
1149.399902
 42
-0.414214
 10
-2007.800049
 20
1145.399902
 10
-2007.800049
 20
1142.015869
 42
-0.217187
 10
-2008.48645
 20
1140.510498
 42
-0.629276
 10
-2009.300049
 20
1140.898926
 10
-2009.300049
 20
1145.399902
 42
0.378639
 10
-2011.493408
 20
1147.880981
 42
0.358301
 10
-2012.300049
 20
1146.899902
 42
-0.414214
 10
-2013.800049
 20
1145.399902
 10
-2022.0
 20
1145.399902
 10
-2022.0
 20
1126.399902
 10
-2023.5
 20
1126.399902
 10
-2023.5
 20
1129.899902
 42
0.414214
 10
-2024.5
 20
1130.899902
 10
-2051.0
 20
1130.899902
  0
LWPOLYLINE
  5
99
100
AcDbEntity
  8
LAYER22
370
    25
390
0
  6
Continuous
 62
     2
100
AcDbPolyline
 90
       30
 70
     0
 10
-2051.0
 20
1132.899902
 10
-2078.5
 20
1132.899902
 10
-2078.5
 20
1146.899902
 42
-0.414214
 10
-2077.5
 20
1147.899902
 10
-2074.25
 20
1147.899902
 42
0.647625
 10
-2073.876709
 20
1148.733276
 42
0.213431
 10
-2075.367432
 20
1149.399902
 10
-2081.609131
 20
1149.39978
 42
0.744972
 10
-2081.878418
 20
1148.498779
 10
-2080.145508
 20
1147.457031
 10
-2080.299805
 20
1146.899902
 10
-2087.899902
 20
1146.89978
 10
-2088.054443
 20
1147.457031
 10
-2086.354492
 20
1148.478394
 42
0.776162
 10
-2086.59082
 20
1149.400269
 10
-2090.199951
 20
1149.399902
 42
0.414214
 10
-2094.199951
 20
1145.399902
 10
-2094.199951
 20
1142.015869
 42
0.217187
 10
-2093.513672
 20
1140.510498
 42
0.629276
 10
-2092.699951
 20
1140.898926
 10
-2092.699951
 20
1145.399902
 42
-0.378639
 10
-2090.506592
 20
1147.880981
 42
-0.358301
 10
-2089.699951
 20
1146.899902
 42
0.414214
 10
-2088.199951
 20
1145.399902
 10
-2080.0
 20
1145.399902
 10
-2080.0
 20
1126.399902
 10
-2078.5
 20
1126.399902
 10
-2078.5
 20
1129.899902
 42
-0.414214
 10
-2077.5
 20
1130.899902
 10
-2051.0
 20
1130.899902
  0
LWPOLYLINE
  5
9A
100
AcDbEntity
  8
LAYER22
370
    18
390
0
  6
Continuous
 62
     1
100
AcDbPolyline
 90
        6
 70
     1
 10
-2078.5
 20
1132.899902
 10
-2078.5
 20
1146.899902
 42
-0.414214
 10
-2077.5
 20
1147.899902
 10
-2024.5
 20
1147.899902
 42
-0.414214
 10
-2023.5
 20
1146.899902
 10
-2023.5
 20
1132.899902
  0
LWPOLYLINE
  5
9B
100
AcDbEntity
  8
LAYER22
370
    25
390
0
  6
Continuous
 62
     2
100
AcDbPolyline
 90
       16
 70
     1
 10
-2084.100098
 20
1146.89978
 10
-2080.299805
 20
1146.89978
 10
-2080.145508
 20
1147.457031
 10
-2081.878418
 20
1148.498291
 10
-2082.100098
 20
1148.909058
 10
-2081.723633
 20
1149.386719
 42
0.856945
 10
-2084.145264
 20
1165.011353
 10
-2084.145264
 20
1164.511353
 42
1.0
 10
-2084.145264
 20
1149.511353
 42
1.0
 10
-2084.145264
 20
1164.511353
 10
-2084.145264
 20
1165.011353
 42
0.871902
 10
-2086.304688
 20
1149.30835
 10
-2086.099609
 20
1148.909058
 10
-2086.321289
 20
1148.498291
 10
-2088.054443
 20
1147.457031
 10
-2087.899902
 20
1146.89978
  0
LWPOLYLINE
  5
9C
100
AcDbEntity
  8
LAYER22
370
    25
390
0
  6
Continuous
 62
     2
100
AcDbPolyline
 90
       16
 70
     1
 10
-2017.899902
 20
1146.89978
 10
-2021.700195
 20
1146.89978
 10
-2021.854492
 20
1147.457031
 10
-2020.121582
 20
1148.498291
 10
-2019.899902
 20
1148.909058
 10
-2020.276367
 20
1149.386719
 42
-0.856945
 10
-2017.854736
 20
1165.011353
 10
-2017.854736
 20
1164.511353
 42
1.0
 10
-2017.854736
 20
1149.511353
 42
1.0
 10
-2017.854736
 20
1164.511353
 10
-2017.854736
 20
1165.011353
 42
-0.871902
 10
-2015.695313
 20
1149.30835
 10
-2015.900391
 20
1148.909058
 10
-2015.678711
 20
1148.498291
 10
-2013.945557
 20
1147.457031
 10
-2014.100098
 20
1146.89978
  0
LWPOLYLINE
  5
9D
100
AcDbEntity
  8
LAYER22
370
    25
390
0
  6
Continuous
 62
     2
100
AcDbPolyline
 90
       30
 70
     0
 10
-2051.0
 20
-1420.0
 10
-2023.5
 20
-1420.0
 10
-2023.5
 20
-1434.0
 42
-0.414214
 10
-2024.5
 20
-1435.0
 10
-2027.75
 20
-1435.0
 42
0.647625
 10
-2028.123169
 20
-1435.833374
 42
0.213431
 10
-2026.632568
 20
-1436.5
 10
-2020.390869
 20
-1436.499878
 42
0.744972
 10
-2020.121582
 20
-1435.598877
 10
-2021.854492
 20
-1434.557129
 10
-2021.700195
 20
-1434.0
 10
-2014.100098
 20
-1433.999878
 10
-2013.945557
 20
-1434.557129
 10
-2015.645508
 20
-1435.578491
 42
0.776162
 10
-2015.40918
 20
-1436.500366
 10
-2011.800049
 20
-1436.5
 42
0.414214
 10
-2007.800049
 20
-1432.5
 10
-2007.800049
 20
-1429.115967
 42
0.217187
 10
-2008.48645
 20
-1427.610596
 42
0.629276
 10
-2009.300049
 20
-1427.999023
 10
-2009.300049
 20
-1432.5
 42
-0.378639
 10
-2011.493408
 20
-1434.981079
 42
-0.358301
 10
-2012.300049
 20
-1434.0
 42
0.414214
 10
-2013.800049
 20
-1432.5
 10
-2022.0
 20
-1432.5
 10
-2022.0
 20
-1413.5
 10
-2023.5
 20
-1413.5
 10
-2023.5
 20
-1417.0
 42
-0.414214
 10
-2024.5
 20
-1418.0
 10
-2051.0
 20
-1418.0
  0
LWPOLYLINE
  5
9E
100
AcDbEntity
  8
LAYER22
370
    25
390
0
  6
Continuous
 62
     2
100
AcDbPolyline
 90
       30
 70
     0
 10
-2051.0
 20
-1420.0
 10
-2078.5
 20
-1420.0
 10
-2078.5
 20
-1434.0
 42
0.414214
 10
-2077.5
 20
-1435.0
 10
-2074.25
 20
-1435.0
 42
-0.647625
 10
-2073.876709
 20
-1435.833374
 42
-0.213431
 10
-2075.367432
 20
-1436.5
 10
-2081.609131
 20
-1436.499878
 42
-0.744972
 10
-2081.878418
 20
-1435.598877
 10
-2080.145508
 20
-1434.557129
 10
-2080.299805
 20
-1434.0
 10
-2087.899902
 20
-1433.999878
 10
-2088.054443
 20
-1434.557129
 10
-2086.354492
 20
-1435.578491
 42
-0.776162
 10
-2086.59082
 20
-1436.500366
 10
-2090.199951
 20
-1436.5
 42
-0.414214
 10
-2094.199951
 20
-1432.5
 10
-2094.199951
 20
-1429.115967
 42
-0.217187
 10
-2093.513672
 20
-1427.610596
 42
-0.629276
 10
-2092.699951
 20
-1427.999023
 10
-2092.699951
 20
-1432.5
 42
0.378639
 10
-2090.506592
 20
-1434.981079
 42
0.358301
 10
-2089.699951
 20
-1434.0
 42
-0.414214
 10
-2088.199951
 20
-1432.5
 10
-2080.0
 20
-1432.5
 10
-2080.0
 20
-1413.5
 10
-2078.5
 20
-1413.5
 10
-2078.5
 20
-1417.0
 42
0.414214
 10
-2077.5
 20
-1418.0
 10
-2051.0
 20
-1418.0
  0
LWPOLYLINE
  5
9F
100
AcDbEntity
  8
LAYER22
370
    18
390
0
  6
Continuous
 62
     1
100
AcDbPolyline
 90
        6
 70
     1
 10
-2078.5
 20
-1420.0
 10
-2078.5
 20
-1434.0
 42
0.414214
 10
-2077.5
 20
-1435.0
 10
-2024.5
 20
-1435.0
 42
0.414214
 10
-2023.5
 20
-1434.0
 10
-2023.5
 20
-1420.0
  0
LWPOLYLINE
  5
A0
100
AcDbEntity
  8
LAYER22
370
    25
390
0
  6
Continuous
 62
     2
100
AcDbPolyline
 90
       16
 70
     1
 10
-2084.100098
 20
-1433.999878
 10
-2080.299805
 20
-1433.999878
 10
-2080.145508
 20
-1434.557129
 10
-2081.878418
 20
-1435.598389
 10
-2082.100098
 20
-1436.009155
 10
-2081.723633
 20
-1436.486816
 42
-0.856945
 10
-2084.145264
 20
-1452.11145
 10
-2084.145264
 20
-1451.61145
 42
1.0
 10
-2084.145264
 20
-1436.61145
 42
1.0
 10
-2084.145264
 20
-1451.61145
 10
-2084.145264
 20
-1452.11145
 42
-0.871902
 10
-2086.304688
 20
-1436.408447
 10
-2086.099609
 20
-1436.009155
 10
-2086.321289
 20
-1435.598389
 10
-2088.054443
 20
-1434.557129
 10
-2087.899902
 20
-1433.999878
  0
LWPOLYLINE
  5
A1
100
AcDbEntity
  8
LAYER22
370
    25
390
0
  6
Continuous
 62
     2
100
AcDbPolyline
 90
       16
 70
     1
 10
-2017.899902
 20
-1433.999878
 10
-2021.700195
 20
-1433.999878
 10
-2021.854492
 20
-1434.557129
 10
-2020.121582
 20
-1435.598389
 10
-2019.899902
 20
-1436.009155
 10
-2020.276367
 20
-1436.486816
 42
0.856945
 10
-2017.854736
 20
-1452.11145
 10
-2017.854736
 20
-1451.61145
 42
1.0
 10
-2017.854736
 20
-1436.61145
 42
1.0
 10
-2017.854736
 20
-1451.61145
 10
-2017.854736
 20
-1452.11145
 42
0.871902
 10
-2015.695313
 20
-1436.408447
 10
-2015.900391
 20
-1436.009155
 10
-2015.678711
 20
-1435.598389
 10
-2013.945557
 20
-1434.557129
 10
-2014.100098
 20
-1433.999878
  0
LWPOLYLINE
  5
A2
100
AcDbEntity
  8
LAYER22
370
    18
390
0
  6
Continuous
 62
     1
100
AcDbPolyline
 90
        4
 70
     1
 10
-2066.0
 20
-1438.0
 10
-2066.0
 20
-1435.0
 10
-2036.0
 20
-1435.0
 10
-2036.0
 20
-1438.0
  0
LWPOLYLINE
  5
A3
100
AcDbEntity
  8
LAYER22
370
    18
390
0
  6
Continuous
 62
     1
100
AcDbPolyline
 90
        8
 70
     1
 10
-2060.0
 20
-1448.799927
 10
-2059.199951
 20
-1448.0
 10
-2042.800049
 20
-1448.0
 10
-2042.0
 20
-1448.799927
 10
-2042.0
 20
-1459.199951
 10
-2042.800049
 20
-1460.0
 10
-2059.199951
 20
-1460.0
 10
-2060.0
 20
-1459.199951
  0
LWPOLYLINE
  5
A4
100
AcDbEntity
  8
LAYER22
370
    18
390
0
  6
Continuous
 62
     1
100
AcDbPolyline
 90
        4
 70
     1
 10
-2059.0
 20
-1448.0
 10
-2059.0
 20
-1438.0
 10
-2043.0
 20
-1438.0
 10
-2043.0
 20
-1448.0
  0
LWPOLYLINE
  5
A5
100
AcDbEntity
  8
LAYER22
370
    18
390
0
  6
Continuous
 62
     1
100
AcDbPolyline
 90
        8
 70
     1
 10
-2044.0
 20
-1460.0
 10
-2044.0
 20
-1461.0
 10
-2045.0
 20
-1461.0
 10
-2045.0
 20
-1463.0
 10
-2057.0
 20
-1463.0
 10
-2057.0
 20
-1461.0
 10
-2058.0
 20
-1461.0
 10
-2058.0
 20
-1460.0
  0
LWPOLYLINE
  5
A6
100
AcDbEntity
  8
LAYER22
370
    25
390
0
  6
Continuous
 62
     2
100
AcDbPolyline
 90
       12
 70
     1
 10
-2063.5
 20
-1477.0
 10
-2063.5
 20
-1452.0
 10
-2061.0
 20
-1452.0
 42
-0.414214
 10
-2060.5
 20
-1452.5
 10
-2060.5
 20
-1471.0
 42
0.414214
 10
-2057.5
 20
-1474.0
 10
-2044.5
 20
-1474.0
 42
0.414214
 10
-2041.5
 20
-1471.0
 10
-2041.5
 20
-1452.5
 42
-0.414214
 10
-2041.0
 20
-1452.0
 10
-2038.5
 20
-1452.0
 10
-2038.5
 20
-1477.0
  0
LWPOLYLINE
  5
A7
100
AcDbEntity
  8
LAYER22
370
    18
390
0
  6
Continuous
 62
     1
100
AcDbPolyline
 90
        2
 70
     0
 10
-2057.0
 20
-1461.0
 10
-2045.0
 20
-1461.0
  0
LWPOLYLINE
  5
A8
100
AcDbEntity
  8
LAYER22
370
    25
390
0
  6
Continuous
 62
     2
100
AcDbPolyline
 90
        4
 70
     1
 10
-2022.0
 20
1145.399902
 10
-2009.5
 20
1145.399902
 10
-2009.5
 20
-1432.5
 10
-2022.0
 20
-1432.5
  0
LWPOLYLINE
  5
A9
100
AcDbEntity
  8
LAYER22
370
    25
390
0
  6
Continuous
 62
     2
100
AcDbPolyline
 90
        4
 70
     1
 10
-2080.0
 20
1145.399902
 10
-2092.5
 20
1145.399902
 10
-2092.5
 20
-1432.5
 10
-2080.0
 20
-1432.5
  0
LWPOLYLINE
  5
AA
100
AcDbEntity
  8
LAYER22
370
    25
390
0
  6
Continuous
 62
     2
100
AcDbPolyline
 90
       16
 70
     1
 10
-1630.0
 20
1247.5
 10
-1629.5
 20
1248.0
 10
-1534.5
 20
1248.0
 10
-1534.0
 20
1247.5
 10
-1534.0
 20
1183.5
 10
-1534.5
 20
1183.0
 10
-1536.5
 20
1183.0
 10
-1537.0
 20
1183.5
 10
-1537.0
 20
1242.0
 42
0.414214
 10
-1540.0
 20
1245.0
 10
-1624.0
 20
1245.0
 42
0.414214
 10
-1627.0
 20
1242.0
 10
-1627.0
 20
1183.5
 10
-1627.5
 20
1183.0
 10
-1629.5
 20
1183.0
 10
-1630.0
 20
1183.5
  0
LWPOLYLINE
  5
AB
100
AcDbEntity
  8
LAYER22
370
    25
390
0
  6
Continuous
 62
     2
100
AcDbPolyline
 90
       30
 70
     0
 10
-1582.0
 20
1201.0
 10
-1567.5
 20
1201.0
 10
-1567.0
 20
1200.5
 10
-1567.0
 20
1168.0
 42
0.414214
 10
-1564.0
 20
1165.0
 10
-1559.623779
 20
1165.0
 10
-1557.623779
 20
1167.009277
 10
-1548.950195
 20
1167.009277
 10
-1546.950195
 20
1165.0
 10
-1537.0
 20
1165.0
 42
0.414214
 10
-1534.0
 20
1168.0
 10
-1534.0
 20
1227.5
 10
-1533.5
 20
1228.0
 10
-1532.5
 20
1228.0
 10
-1532.0
 20
1227.5
 10
-1532.0
 20
1163.5
 10
-1532.5
 20
1163.0
 10
-1551.250488
 20
1163.0
 10
-1550.995361
 20
1163.430664
 10
-1549.29541
 20
1164.452026
 10
-1549.450195
 20
1165.009277
 10
-1557.050049
 20
1165.009277
 10
-1557.20459
 20
1164.452026
 10
-1555.504639
 20
1163.430664
 10
-1555.249512
 20
1163.0
 10
-1568.5
 20
1163.0
 10
-1569.0
 20
1163.5
 10
-1569.0
 20
1196.0
 42
0.414214
 10
-1572.0
 20
1199.0
 10
-1582.0
 20
1199.0
  0
LWPOLYLINE
  5
AC
100
AcDbEntity
  8
LAYER22
370
    25
390
0
  6
Continuous
 62
     2
100
AcDbPolyline
 90
       30
 70
     0
 10
-1582.0
 20
1201.0
 10
-1596.5
 20
1201.0
 10
-1597.0
 20
1200.5
 10
-1597.0
 20
1168.0
 42
-0.414214
 10
-1600.0
 20
1165.0
 10
-1604.376221
 20
1165.0
 10
-1606.376221
 20
1167.009277
 10
-1615.049805
 20
1167.009277
 10
-1617.049805
 20
1165.0
 10
-1627.0
 20
1165.0
 42
-0.414214
 10
-1630.0
 20
1168.0
 10
-1630.0
 20
1227.5
 10
-1630.5
 20
1228.0
 10
-1631.5
 20
1228.0
 10
-1632.0
 20
1227.5
 10
-1632.0
 20
1163.5
 10
-1631.5
 20
1163.0
 10
-1612.749512
 20
1163.0
 10
-1613.004639
 20
1163.430664
 10
-1614.70459
 20
1164.452026
 10
-1614.549805
 20
1165.009277
 10
-1606.949951
 20
1165.009277
 10
-1606.79541
 20
1164.452026
 10
-1608.495361
 20
1163.430664
 10
-1608.750488
 20
1163.0
 10
-1595.5
 20
1163.0
 10
-1595.0
 20
1163.5
 10
-1595.0
 20
1196.0
 42
-0.414214
 10
-1592.0
 20
1199.0
 10
-1582.0
 20
1199.0
  0
LWPOLYLINE
  5
AD
100
AcDbEntity
  8
LAYER22
370
    18
390
0
  6
Continuous
 62
     1
100
AcDbPolyline
 90
        4
 70
     1
 10
-1594.488281
 20
1161.897705
 10
-1594.488281
 20
1186.897705
 10
-1569.488281
 20
1186.897705
 10
-1569.488281
 20
1161.897705
  0
LWPOLYLINE
  5
AE
100
AcDbEntity
  8
LAYER22
370
    18
390
0
  6
Continuous
 62
     1
100
AcDbPolyline
 90
        4
 70
     1
 10
-1574.442139
 20
1161.897705
 10
-1574.442139
 20
1145.499878
 10
-1589.442139
 20
1145.499878
 10
-1589.442139
 20
1161.897705
  0
LWPOLYLINE
  5
AF
100
AcDbEntity
  8
LAYER22
370
    25
390
0
  6
Continuous
 62
     2
100
AcDbPolyline
 90
       16
 70
     1
 10
-1610.75
 20
1165.009277
 10
-1606.950195
 20
1165.009277
 10
-1606.79541
 20
1164.452026
 10
-1608.528564
 20
1163.410767
 10
-1608.750488
 20
1163.0
 10
-1608.373535
 20
1162.522339
 42
-0.856945
 10
-1610.79541
 20
1146.897705
 10
-1610.79541
 20
1147.397705
 42
1.0
 10
-1610.79541
 20
1162.397705
 42
1.0
 10
-1610.79541
 20
1147.397705
 10
-1610.79541
 20
1146.897705
 42
-0.871902
 10
-1612.95459
 20
1162.60083
 10
-1612.749512
 20
1163.0
 10
-1612.971436
 20
1163.410767
 10
-1614.70459
 20
1164.452026
 10
-1614.550049
 20
1165.009277
  0
LWPOLYLINE
  5
B0
100
AcDbEntity
  8
LAYER22
370
    25
390
0
  6
Continuous
 62
     2
100
AcDbPolyline
 90
       16
 70
     1
 10
-1553.323975
 20
1165.009277
 10
-1549.523926
 20
1165.009277
 10
-1549.369385
 20
1164.452026
 10
-1551.102539
 20
1163.410767
 10
-1551.324219
 20
1163.0
 10
-1550.94751
 20
1162.522339
 42
-0.856945
 10
-1553.369141
 20
1146.897705
 10
-1553.369141
 20
1147.397705
 42
1.0
 10
-1553.369141
 20
1162.397705
 42
1.0
 10
-1553.369141
 20
1147.397705
 10
-1553.369141
 20
1146.897705
 42
-0.871902
 10
-1555.528564
 20
1162.600708
 10
-1555.323486
 20
1163.0
 10
-1555.54541
 20
1163.410767
 10
-1557.27832
 20
1164.452026
 10
-1557.124023
 20
1165.009277
  0
LWPOLYLINE
  5
B1
100
AcDbEntity
  8
LAYER22
370
    25
390
0
  6
Continuous
 62
     2
100
AcDbPolyline
 90
       30
 70
     0
 10
-1581.941406
 20
1130.499512
 10
-1554.441406
 20
1130.499512
 10
-1554.441406
 20
1144.499512
 42
0.414214
 10
-1555.441406
 20
1145.499512
 10
-1558.691406
 20
1145.499512
 42
-0.647625
 10
-1559.064575
 20
1146.332886
 42
-0.213431
 10
-1557.573975
 20
1146.999512
 10
-1551.332275
 20
1146.99939
 42
-0.744972
 10
-1551.062988
 20
1146.098389
 10
-1552.795898
 20
1145.056641
 10
-1552.641602
 20
1144.499512
 10
-1545.041504
 20
1144.49939
 10
-1544.886963
 20
1145.056641
 10
-1546.586914
 20
1146.078003
 42
-0.776162
 10
-1546.350586
 20
1146.999878
 10
-1542.741455
 20
1146.999512
 42
-0.414214
 10
-1538.741455
 20
1142.999512
 10
-1538.741455
 20
1139.615479
 42
-0.217187
 10
-1539.427856
 20
1138.110107
 42
-0.629276
 10
-1540.241455
 20
1138.498535
 10
-1540.241455
 20
1142.999512
 42
0.378639
 10
-1542.434814
 20
1145.480591
 42
0.358301
 10
-1543.241455
 20
1144.499512
 42
-0.414214
 10
-1544.741455
 20
1142.999512
 10
-1552.941406
 20
1142.999512
 10
-1552.941406
 20
1123.999512
 10
-1554.441406
 20
1123.999512
 10
-1554.441406
 20
1127.499512
 42
0.414214
 10
-1555.441406
 20
1128.499512
 10
-1581.941406
 20
1128.499512
  0
LWPOLYLINE
  5
B2
100
AcDbEntity
  8
LAYER22
370
    25
390
0
  6
Continuous
 62
     2
100
AcDbPolyline
 90
       30
 70
     0
 10
-1581.941406
 20
1130.499512
 10
-1609.441406
 20
1130.499512
 10
-1609.441406
 20
1144.499512
 42
-0.414214
 10
-1608.441406
 20
1145.499512
 10
-1605.191406
 20
1145.499512
 42
0.647625
 10
-1604.818237
 20
1146.332886
 42
0.213431
 10
-1606.308838
 20
1146.999512
 10
-1612.550537
 20
1146.99939
 42
0.744972
 10
-1612.819824
 20
1146.098389
 10
-1611.086914
 20
1145.056641
 10
-1611.241211
 20
1144.499512
 10
-1618.841309
 20
1144.49939
 10
-1618.99585
 20
1145.056641
 10
-1617.295898
 20
1146.078003
 42
0.776162
 10
-1617.532227
 20
1146.999878
 10
-1621.141357
 20
1146.999512
 42
0.414214
 10
-1625.141357
 20
1142.999512
 10
-1625.141357
 20
1139.615479
 42
0.217187
 10
-1624.454956
 20
1138.110107
 42
0.629276
 10
-1623.641357
 20
1138.498535
 10
-1623.641357
 20
1142.999512
 42
-0.378639
 10
-1621.447998
 20
1145.480591
 42
-0.358301
 10
-1620.641357
 20
1144.499512
 42
0.414214
 10
-1619.141357
 20
1142.999512
 10
-1610.941406
 20
1142.999512
 10
-1610.941406
 20
1123.999512
 10
-1609.441406
 20
1123.999512
 10
-1609.441406
 20
1127.499512
 42
-0.414214
 10
-1608.441406
 20
1128.499512
 10
-1581.941406
 20
1128.499512
  0
LWPOLYLINE
  5
B3
100
AcDbEntity
  8
LAYER22
370
    18
390
0
  6
Continuous
 62
     1
100
AcDbPolyline
 90
        6
 70
     1
 10
-1609.441406
 20
1130.499512
 10
-1609.441406
 20
1144.499512
 42
-0.414214
 10
-1608.441406
 20
1145.499512
 10
-1555.441406
 20
1145.499512
 42
-0.414214
 10
-1554.441406
 20
1144.499512
 10
-1554.441406
 20
1130.499512
  0
LWPOLYLINE
  5
B4
100
AcDbEntity
  8
LAYER22
370
    25
390
0
  6
Continuous
 62
     2
100
AcDbPolyline
 90
       30
 70
     0
 10
-1581.941406
 20
-1410.000244
 10
-1554.441406
 20
-1410.000244
 10
-1554.441406
 20
-1424.000244
 42
-0.414214
 10
-1555.441406
 20
-1425.000244
 10
-1558.691406
 20
-1425.000244
 42
0.647625
 10
-1559.064575
 20
-1425.833618
 42
0.213431
 10
-1557.573975
 20
-1426.500244
 10
-1551.332275
 20
-1426.500122
 42
0.744972
 10
-1551.062988
 20
-1425.599121
 10
-1552.795898
 20
-1424.557373
 10
-1552.641602
 20
-1424.000244
 10
-1545.041504
 20
-1424.000122
 10
-1544.886963
 20
-1424.557373
 10
-1546.586914
 20
-1425.578735
 42
0.776162
 10
-1546.350586
 20
-1426.50061
 10
-1542.741455
 20
-1426.500244
 42
0.414214
 10
-1538.741455
 20
-1422.500244
 10
-1538.741455
 20
-1419.116211
 42
0.217187
 10
-1539.427856
 20
-1417.61084
 42
0.629276
 10
-1540.241455
 20
-1417.999268
 10
-1540.241455
 20
-1422.500244
 42
-0.378639
 10
-1542.434814
 20
-1424.981323
 42
-0.358301
 10
-1543.241455
 20
-1424.000244
 42
0.414214
 10
-1544.741455
 20
-1422.500244
 10
-1552.941406
 20
-1422.500244
 10
-1552.941406
 20
-1403.500244
 10
-1554.441406
 20
-1403.500244
 10
-1554.441406
 20
-1407.000244
 42
-0.414214
 10
-1555.441406
 20
-1408.000244
 10
-1581.941406
 20
-1408.000244
  0
LWPOLYLINE
  5
B5
100
AcDbEntity
  8
LAYER22
370
    25
390
0
  6
Continuous
 62
     2
100
AcDbPolyline
 90
       30
 70
     0
 10
-1581.941406
 20
-1410.000244
 10
-1609.441406
 20
-1410.000244
 10
-1609.441406
 20
-1424.000244
 42
0.414214
 10
-1608.441406
 20
-1425.000244
 10
-1605.191406
 20
-1425.000244
 42
-0.647625
 10
-1604.818237
 20
-1425.833618
 42
-0.213431
 10
-1606.308838
 20
-1426.500244
 10
-1612.550537
 20
-1426.500122
 42
-0.744972
 10
-1612.819824
 20
-1425.599121
 10
-1611.086914
 20
-1424.557373
 10
-1611.241211
 20
-1424.000244
 10
-1618.841309
 20
-1424.000122
 10
-1618.99585
 20
-1424.557373
 10
-1617.295898
 20
-1425.578735
 42
-0.776162
 10
-1617.532227
 20
-1426.50061
 10
-1621.141357
 20
-1426.500244
 42
-0.414214
 10
-1625.141357
 20
-1422.500244
 10
-1625.141357
 20
-1419.116211
 42
-0.217187
 10
-1624.454956
 20
-1417.61084
 42
-0.629276
 10
-1623.641357
 20
-1417.999268
 10
-1623.641357
 20
-1422.500244
 42
0.378639
 10
-1621.447998
 20
-1424.981323
 42
0.358301
 10
-1620.641357
 20
-1424.000244
 42
-0.414214
 10
-1619.141357
 20
-1422.500244
 10
-1610.941406
 20
-1422.500244
 10
-1610.941406
 20
-1403.500244
 10
-1609.441406
 20
-1403.500244
 10
-1609.441406
 20
-1407.000244
 42
0.414214
 10
-1608.441406
 20
-1408.000244
 10
-1581.941406
 20
-1408.000244
  0
LWPOLYLINE
  5
B6
100
AcDbEntity
  8
LAYER22
370
    18
390
0
  6
Continuous
 62
     1
100
AcDbPolyline
 90
        6
 70
     1
 10
-1609.441406
 20
-1410.000244
 10
-1609.441406
 20
-1424.000244
 42
0.414214
 10
-1608.441406
 20
-1425.000244
 10
-1555.441406
 20
-1425.000244
 42
0.414214
 10
-1554.441406
 20
-1424.000244
 10
-1554.441406
 20
-1410.000244
  0
LWPOLYLINE
  5
B7
100
AcDbEntity
  8
LAYER22
370
    25
390
0
  6
Continuous
 62
     2
100
AcDbPolyline
 90
       16
 70
     1
 10
-1615.041504
 20
-1424.000122
 10
-1611.241211
 20
-1424.000122
 10
-1611.086914
 20
-1424.557373
 10
-1612.819824
 20
-1425.598633
 10
-1613.041504
 20
-1426.009399
 10
-1612.665039
 20
-1426.487061
 42
-0.856945
 10
-1615.08667
 20
-1442.111694
 10
-1615.08667
 20
-1441.611694
 42
1.0
 10
-1615.08667
 20
-1426.611694
 42
1.0
 10
-1615.08667
 20
-1441.611694
 10
-1615.08667
 20
-1442.111694
 42
-0.871902
 10
-1617.246094
 20
-1426.408691
 10
-1617.041016
 20
-1426.009399
 10
-1617.262695
 20
-1425.598633
 10
-1618.99585
 20
-1424.557373
 10
-1618.841309
 20
-1424.000122
  0
LWPOLYLINE
  5
B8
100
AcDbEntity
  8
LAYER22
370
    25
390
0
  6
Continuous
 62
     2
100
AcDbPolyline
 90
       16
 70
     1
 10
-1548.841309
 20
-1424.000122
 10
-1552.641602
 20
-1424.000122
 10
-1552.795898
 20
-1424.557373
 10
-1551.062988
 20
-1425.598633
 10
-1550.841309
 20
-1426.009399
 10
-1551.217773
 20
-1426.487061
 42
0.856945
 10
-1548.796143
 20
-1442.111694
 10
-1548.796143
 20
-1441.611694
 42
1.0
 10
-1548.796143
 20
-1426.611694
 42
1.0
 10
-1548.796143
 20
-1441.611694
 10
-1548.796143
 20
-1442.111694
 42
0.871902
 10
-1546.636719
 20
-1426.408691
 10
-1546.841797
 20
-1426.009399
 10
-1546.620117
 20
-1425.598633
 10
-1544.886963
 20
-1424.557373
 10
-1545.041504
 20
-1424.000122
  0
LWPOLYLINE
  5
B9
100
AcDbEntity
  8
LAYER22
370
    25
390
0
  6
Continuous
 62
     2
100
AcDbPolyline
 90
        4
 70
     1
 10
-1552.941406
 20
1142.999512
 10
-1540.441406
 20
1142.999512
 10
-1540.441406
 20
-1422.500488
 10
-1552.941406
 20
-1422.500488
  0
LWPOLYLINE
  5
BA
100
AcDbEntity
  8
LAYER22
370
    25
390
0
  6
Continuous
 62
     2
100
AcDbPolyline
 90
        4
 70
     1
 10
-1610.941406
 20
1142.999512
 10
-1623.441406
 20
1142.999512
 10
-1623.441406
 20
-1422.500488
 10
-1610.941406
 20
-1422.500488
  0
LWPOLYLINE
  5
BB
100
AcDbEntity
  8
LAYER22
370
    25
390
0
  6
Continuous
 62
     2
100
AcDbPolyline
 90
       18
 70
     0
 10
-1581.941406
 20
-1444.0
 10
-1576.941406
 20
-1444.0
 10
-1576.941406
 20
-1449.5
 10
-1568.941406
 20
-1449.5
 10
-1568.941406
 20
-1444.0
 10
-1553.191406
 20
-1444.0
 42
-0.123106
 10
-1542.603027
 20
-1446.647095
 42
-1.000023
 10
-1543.779663
 20
-1448.852905
 10
-1543.503906
 20
-1449.0
 42
0.111215
 10
-1551.941406
 20
-1446.536621
 10
-1551.941406
 20
-1452.0
 10
-1554.441406
 20
-1452.0
 10
-1554.441406
 20
-1446.5
 10
-1566.441406
 20
-1446.5
 10
-1566.441406
 20
-1452.0
 10
-1579.441406
 20
-1452.0
 10
-1579.441406
 20
-1446.5
 10
-1581.941406
 20
-1446.5
  0
LWPOLYLINE
  5
BC
100
AcDbEntity
  8
LAYER22
370
    25
390
0
  6
Continuous
 62
     2
100
AcDbPolyline
 90
       18
 70
     0
 10
-1581.941406
 20
-1444.0
 10
-1586.941406
 20
-1444.0
 10
-1586.941406
 20
-1449.5
 10
-1594.941406
 20
-1449.5
 10
-1594.941406
 20
-1444.0
 10
-1610.691406
 20
-1444.0
 42
0.123106
 10
-1621.279785
 20
-1446.647095
 42
1.000023
 10
-1620.103149
 20
-1448.852905
 10
-1620.378906
 20
-1449.0
 42
-0.111215
 10
-1611.941406
 20
-1446.536621
 10
-1611.941406
 20
-1452.0
 10
-1609.441406
 20
-1452.0
 10
-1609.441406
 20
-1446.5
 10
-1597.441406
 20
-1446.5
 10
-1597.441406
 20
-1452.0
 10
-1584.441406
 20
-1452.0
 10
-1584.441406
 20
-1446.5
 10
-1581.941406
 20
-1446.5
  0
LWPOLYLINE
  5
BD
100
AcDbEntity
  8
LAYER22
370
    18
390
0
  6
Continuous
 62
     1
100
AcDbPolyline
 90
        4
 70
     0
 10
-1561.941406
 20
-1425.000122
 10
-1561.941406
 20
-1435.000122
 10
-1601.941406
 20
-1435.000122
 10
-1601.941406
 20
-1425.000122
  0
LWPOLYLINE
  5
BE
100
AcDbEntity
  8
LAYER22
370
    18
390
0
  6
Continuous
 62
     1
100
AcDbPolyline
 90
        6
 70
     0
 10
-1573.941406
 20
-1435.000122
 10
-1573.941406
 20
-1442.000122
 10
-1574.941406
 20
-1445.000122
 10
-1576.441406
 20
-1445.000122
 10
-1576.941406
 20
-1442.000122
 10
-1576.941406
 20
-1435.000122
  0
LWPOLYLINE
  5
BF
100
AcDbEntity
  8
LAYER22
370
    18
390
0
  6
Continuous
 62
     1
100
AcDbPolyline
 90
        6
 70
     0
 10
-1586.941406
 20
-1435.000122
 10
-1586.941406
 20
-1442.000122
 10
-1587.441406
 20
-1445.000122
 10
-1588.941406
 20
-1445.000122
 10
-1589.941406
 20
-1442.000122
 10
-1589.941406
 20
-1435.000122
  0
LWPOLYLINE
  5
C0
100
AcDbEntity
  8
LAYER22
370
    18
390
0
  6
Continuous
 62
     1
100
AcDbPolyline
 90
        2
 70
     0
 10
-1586.941406
 20
-1442.000122
 10
-1576.941406
 20
-1442.000122
  0
LWPOLYLINE
  5
C1
100
AcDbEntity
  8
LAYER22
370
    25
390
0
  6
Continuous
 62
     2
100
AcDbPolyline
 90
       38
 70
     0
 10
-1073.734375
 20
1248.0
 10
-1015.734375
 20
1248.0
 10
-1015.234375
 20
1247.5
 10
-1015.234375
 20
1208.5
 10
-1015.734375
 20
1208.0
 10
-1017.234375
 20
1208.0
 10
-1017.734375
 20
1208.5
 10
-1017.734375
 20
1242.0
 42
0.414214
 10
-1019.734375
 20
1244.0
 10
-1032.734375
 20
1244.0
 42
0.414214
 10
-1034.734375
 20
1242.0
 10
-1034.734375
 20
1198.5
 10
-1035.234375
 20
1198.0
 10
-1064.234375
 20
1198.0
 10
-1064.734375
 20
1198.5
 10
-1064.734375
 20
1205.0
 10
-1064.234375
 20
1205.5
 10
-1062.734375
 20
1205.5
 10
-1062.234375
 20
1205.0
 10
-1062.234375
 20
1203.5
 42
0.414214
 10
-1060.234375
 20
1201.5
 10
-1043.234375
 20
1201.5
 42
0.414214
 10
-1041.234375
 20
1203.5
 10
-1041.234375
 20
1205.5
 10
-1038.234375
 20
1208.5
 10
-1038.234375
 20
1235.0
 10
-1041.234375
 20
1238.0
 10
-1041.234375
 20
1242.0
 42
0.414214
 10
-1043.234375
 20
1244.0
 10
-1060.234375
 20
1244.0
 42
0.414214
 10
-1062.234375
 20
1242.0
 10
-1062.234375
 20
1238.5
 10
-1062.734375
 20
1238.0
 10
-1064.234375
 20
1238.0
 10
-1064.734375
 20
1238.5
 10
-1064.734375
 20
1243.5
 10
-1065.234375
 20
1244.0
 10
-1073.734375
 20
1244.0
  0
LWPOLYLINE
  5
C2
100
AcDbEntity
  8
LAYER22
370
    25
390
0
  6
Continuous
 62
     2
100
AcDbPolyline
 90
       38
 70
     0
 10
-1073.734375
 20
1248.0
 10
-1131.734375
 20
1248.0
 10
-1132.234375
 20
1247.5
 10
-1132.234375
 20
1208.5
 10
-1131.734375
 20
1208.0
 10
-1130.234375
 20
1208.0
 10
-1129.734375
 20
1208.5
 10
-1129.734375
 20
1242.0
 42
-0.414214
 10
-1127.734375
 20
1244.0
 10
-1114.734375
 20
1244.0
 42
-0.414214
 10
-1112.734375
 20
1242.0
 10
-1112.734375
 20
1198.5
 10
-1112.234375
 20
1198.0
 10
-1083.234375
 20
1198.0
 10
-1082.734375
 20
1198.5
 10
-1082.734375
 20
1205.0
 10
-1083.234375
 20
1205.5
 10
-1084.734375
 20
1205.5
 10
-1085.234375
 20
1205.0
 10
-1085.234375
 20
1203.5
 42
-0.414214
 10
-1087.234375
 20
1201.5
 10
-1104.234375
 20
1201.5
 42
-0.414214
 10
-1106.234375
 20
1203.5
 10
-1106.234375
 20
1205.5
 10
-1109.234375
 20
1208.5
 10
-1109.234375
 20
1235.0
 10
-1106.234375
 20
1238.0
 10
-1106.234375
 20
1242.0
 42
-0.414214
 10
-1104.234375
 20
1244.0
 10
-1087.234375
 20
1244.0
 42
-0.414214
 10
-1085.234375
 20
1242.0
 10
-1085.234375
 20
1238.5
 10
-1084.734375
 20
1238.0
 10
-1083.234375
 20
1238.0
 10
-1082.734375
 20
1238.5
 10
-1082.734375
 20
1243.5
 10
-1082.234375
 20
1244.0
 10
-1073.734375
 20
1244.0
  0
LWPOLYLINE
  5
C3
100
AcDbEntity
  8
LAYER22
370
    18
390
0
  6
Continuous
 62
     1
100
AcDbPolyline
 90
        8
 70
     1
 10
-1095.734375
 20
1230.899902
 10
-1095.134766
 20
1231.5
 10
-1087.333984
 20
1231.5
 10
-1086.734375
 20
1230.899902
 10
-1086.734375
 20
1202.100098
 10
-1087.333984
 20
1201.5
 10
-1095.134766
 20
1201.5
 10
-1095.734375
 20
1202.100098
  0
LWPOLYLINE
  5
C4
100
AcDbEntity
  8
LAYER22
370
    18
390
0
  6
Continuous
 62
     1
100
AcDbPolyline
 90
        8
 70
     1
 10
-1095.734375
 20
1208.5
 10
-1097.234375
 20
1208.5
 10
-1097.234375
 20
1211.5
 10
-1098.234375
 20
1211.5
 10
-1098.234375
 20
1221.5
 10
-1097.234375
 20
1221.5
 10
-1097.234375
 20
1224.5
 10
-1095.734375
 20
1224.5
  0
LWPOLYLINE
  5
C5
100
AcDbEntity
  8
LAYER22
370
    18
390
0
  6
Continuous
 62
     1
100
AcDbPolyline
 90
        4
 70
     1
 10
-1086.734375
 20
1224.0
 10
-1083.734375
 20
1224.0
 10
-1083.734375
 20
1209.0
 10
-1086.734375
 20
1209.0
  0
LWPOLYLINE
  5
C6
100
AcDbEntity
  8
LAYER22
370
    18
390
0
  6
Continuous
 62
     1
100
AcDbPolyline
 90
        4
 70
     1
 10
-1083.734375
 20
1206.5
 10
-1083.734375
 20
1226.5
 10
-1063.734375
 20
1226.5
 10
-1063.734375
 20
1206.5
  0
LWPOLYLINE
  5
C7
100
AcDbEntity
  8
LAYER22
370
    18
390
0
  6
Continuous
 62
     1
100
AcDbPolyline
 90
        6
 70
     1
 10
-1084.285156
 20
1228.453125
 10
-1084.285156
 20
1234.452637
 10
-1081.646484
 20
1235.953125
 10
-1065.822266
 20
1235.953125
 10
-1063.183594
 20
1234.453125
 10
-1063.183594
 20
1228.453125
  0
LWPOLYLINE
  5
C8
100
AcDbEntity
  8
LAYER22
370
    18
390
0
  6
Continuous
 62
     1
100
AcDbPolyline
 90
        5
 70
     0
 10
-1081.646484
 20
1235.953125
 10
-1079.009766
 20
1234.453125
 10
-1073.734375
 20
1235.953125
 10
-1068.458984
 20
1234.453125
 10
-1065.822266
 20
1235.953125
  0
LWPOLYLINE
  5
C9
100
AcDbEntity
  8
LAYER22
370
    18
390
0
  6
Continuous
 62
     1
100
AcDbPolyline
 90
        2
 70
     0
 10
-1079.009766
 20
1234.453125
 10
-1079.009766
 20
1228.453125
  0
LWPOLYLINE
  5
CA
100
AcDbEntity
  8
LAYER22
370
    18
390
0
  6
Continuous
 62
     1
100
AcDbPolyline
 90
        2
 70
     0
 10
-1068.458984
 20
1234.453125
 10
-1068.458984
 20
1228.453125
  0
LWPOLYLINE
  5
CB
100
AcDbEntity
  8
LAYER22
370
    18
390
0
  6
Continuous
 62
     1
100
AcDbPolyline
 90
        6
 70
     1
 10
-1085.158203
 20
1226.5
 10
-1085.371094
 20
1227.845703
 10
-1079.833984
 20
1228.453125
 10
-1067.634766
 20
1228.453125
 10
-1062.097656
 20
1227.845703
 10
-1062.310547
 20
1226.5
  0
LWPOLYLINE
  5
CC
100
AcDbEntity
  8
LAYER22
370
    18
390
0
  6
Continuous
 62
     1
100
AcDbPolyline
 90
        8
 70
     1
 10
-1081.333984
 20
1195.5
 10
-1081.734375
 20
1195.899902
 10
-1081.734375
 20
1205.100098
 10
-1081.333984
 20
1205.5
 10
-1066.134766
 20
1205.5
 10
-1065.734375
 20
1205.100098
 10
-1065.734375
 20
1195.899902
 10
-1066.134766
 20
1195.5
  0
LWPOLYLINE
  5
CD
100
AcDbEntity
  8
LAYER22
370
    18
390
0
  6
Continuous
 62
     1
100
AcDbPolyline
 90
        4
 70
     1
 10
-1079.734375
 20
1206.5
 10
-1067.734375
 20
1206.5
 10
-1067.734375
 20
1205.5
 10
-1079.734375
 20
1205.5
  0
LWPOLYLINE
  5
CE
100
AcDbEntity
  8
LAYER22
370
    18
390
0
  6
Continuous
 62
     1
100
AcDbPolyline
 90
        4
 70
     1
 10
-1080.734375
 20
1195.5
 10
-1066.734375
 20
1195.5
 10
-1066.734375
 20
1194.5
 10
-1080.734375
 20
1194.5
  0
LWPOLYLINE
  5
CF
100
AcDbEntity
  8
LAYER22
370
    18
390
0
  6
Continuous
 62
     1
100
AcDbPolyline
 90
        4
 70
     1
 10
-1079.734375
 20
1194.5
 10
-1067.734375
 20
1194.5
 10
-1067.734375
 20
1192.5
 10
-1079.734375
 20
1192.5
  0
LWPOLYLINE
  5
D0
100
AcDbEntity
  8
LAYER22
370
    18
390
0
  6
Continuous
 62
     1
100
AcDbPolyline
 90
        4
 70
     1
 10
-1068.734375
 20
1192.5
 10
-1068.734375
 20
1147.899902
 10
-1078.734375
 20
1147.899902
 10
-1078.734375
 20
1192.5
  0
LWPOLYLINE
  5
D1
100
AcDbEntity
  8
LAYER22
370
    18
390
0
  6
Continuous
 62
     1
100
AcDbPolyline
 90
        8
 70
     1
 10
-1051.734375
 20
1230.899902
 10
-1052.333984
 20
1231.5
 10
-1060.134766
 20
1231.5
 10
-1060.734375
 20
1230.899902
 10
-1060.734375
 20
1202.100098
 10
-1060.134766
 20
1201.5
 10
-1052.333984
 20
1201.5
 10
-1051.734375
 20
1202.100098
  0
LWPOLYLINE
  5
D2
100
AcDbEntity
  8
LAYER22
370
    18
390
0
  6
Continuous
 62
     1
100
AcDbPolyline
 90
        8
 70
     1
 10
-1051.734375
 20
1208.5
 10
-1050.234375
 20
1208.5
 10
-1050.234375
 20
1211.5
 10
-1049.234375
 20
1211.5
 10
-1049.234375
 20
1221.5
 10
-1050.234375
 20
1221.5
 10
-1050.234375
 20
1224.5
 10
-1051.734375
 20
1224.5
  0
LWPOLYLINE
  5
D3
100
AcDbEntity
  8
LAYER22
370
    18
390
0
  6
Continuous
 62
     1
100
AcDbPolyline
 90
        4
 70
     1
 10
-1060.734375
 20
1224.0
 10
-1063.734375
 20
1224.0
 10
-1063.734375
 20
1209.0
 10
-1060.734375
 20
1209.0
  0
LWPOLYLINE
  5
D4
100
AcDbEntity
  8
LAYER22
370
    25
390
0
  6
Continuous
 62
     2
100
AcDbPolyline
 90
        9
 70
     1
 10
-1033.734375
 20
1226.0
 10
-1017.734375
 20
1226.0
 10
-1017.734375
 20
1173.066406
 10
-1018.734375
 20
1173.0
 42
-0.414214
 10
-1025.734375
 20
1166.0
 10
-1025.734375
 20
1165.0
 10
-1062.734375
 20
1165.0
 10
-1062.734375
 20
1181.0
 10
-1033.734375
 20
1181.0
  0
LWPOLYLINE
  5
D5
100
AcDbEntity
  8
LAYER22
370
    25
390
0
  6
Continuous
 62
     2
100
AcDbPolyline
 90
        9
 70
     1
 10
-1113.734375
 20
1226.0
 10
-1129.734375
 20
1226.0
 10
-1129.734375
 20
1173.066406
 10
-1128.734375
 20
1173.0
 42
0.414214
 10
-1121.734375
 20
1166.0
 10
-1121.734375
 20
1165.0
 10
-1084.734375
 20
1165.0
 10
-1084.734375
 20
1181.0
 10
-1113.734375
 20
1181.0
  0
LWPOLYLINE
  5
D6
100
AcDbEntity
  8
LAYER22
370
    25
390
0
  6
Continuous
 62
     2
100
AcDbPolyline
 90
       30
 70
     0
 10
-1073.734375
 20
1132.899902
 10
-1046.234375
 20
1132.899902
 10
-1046.234375
 20
1146.899902
 42
0.414214
 10
-1047.234375
 20
1147.899902
 10
-1050.484375
 20
1147.899902
 42
-0.647625
 10
-1050.857544
 20
1148.733276
 42
-0.213431
 10
-1049.366943
 20
1149.399902
 10
-1043.125244
 20
1149.39978
 42
-0.744972
 10
-1042.855957
 20
1148.498779
 10
-1044.588867
 20
1147.457031
 10
-1044.43457
 20
1146.899902
 10
-1036.834473
 20
1146.89978
 10
-1036.679932
 20
1147.457031
 10
-1038.379883
 20
1148.478394
 42
-0.776162
 10
-1038.143555
 20
1149.400269
 10
-1034.534424
 20
1149.399902
 42
-0.414214
 10
-1030.534424
 20
1145.399902
 10
-1030.534424
 20
1142.015869
 42
-0.217187
 10
-1031.220825
 20
1140.510498
 42
-0.629276
 10
-1032.034424
 20
1140.898926
 10
-1032.034424
 20
1145.399902
 42
0.378639
 10
-1034.227783
 20
1147.880981
 42
0.358301
 10
-1035.034424
 20
1146.899902
 42
-0.414214
 10
-1036.534424
 20
1145.399902
 10
-1044.734375
 20
1145.399902
 10
-1044.734375
 20
1126.399902
 10
-1046.234375
 20
1126.399902
 10
-1046.234375
 20
1129.899902
 42
0.414214
 10
-1047.234375
 20
1130.899902
 10
-1073.734375
 20
1130.899902
  0
LWPOLYLINE
  5
D7
100
AcDbEntity
  8
LAYER22
370
    25
390
0
  6
Continuous
 62
     2
100
AcDbPolyline
 90
       30
 70
     0
 10
-1073.734375
 20
1132.899902
 10
-1101.234375
 20
1132.899902
 10
-1101.234375
 20
1146.899902
 42
-0.414214
 10
-1100.234375
 20
1147.899902
 10
-1096.984375
 20
1147.899902
 42
0.647625
 10
-1096.611206
 20
1148.733276
 42
0.213431
 10
-1098.101807
 20
1149.399902
 10
-1104.343506
 20
1149.39978
 42
0.744972
 10
-1104.612793
 20
1148.498779
 10
-1102.879883
 20
1147.457031
 10
-1103.03418
 20
1146.899902
 10
-1110.634277
 20
1146.89978
 10
-1110.788818
 20
1147.457031
 10
-1109.088867
 20
1148.478394
 42
0.776162
 10
-1109.325195
 20
1149.400269
 10
-1112.934326
 20
1149.399902
 42
0.414214
 10
-1116.934326
 20
1145.399902
 10
-1116.934326
 20
1142.015869
 42
0.217187
 10
-1116.247925
 20
1140.510498
 42
0.629276
 10
-1115.434326
 20
1140.898926
 10
-1115.434326
 20
1145.399902
 42
-0.378639
 10
-1113.240967
 20
1147.880981
 42
-0.358301
 10
-1112.434326
 20
1146.899902
 42
0.414214
 10
-1110.934326
 20
1145.399902
 10
-1102.734375
 20
1145.399902
 10
-1102.734375
 20
1126.399902
 10
-1101.234375
 20
1126.399902
 10
-1101.234375
 20
1129.899902
 42
-0.414214
 10
-1100.234375
 20
1130.899902
 10
-1073.734375
 20
1130.899902
  0
LWPOLYLINE
  5
D8
100
AcDbEntity
  8
LAYER22
370
    18
390
0
  6
Continuous
 62
     1
100
AcDbPolyline
 90
        6
 70
     1
 10
-1101.234375
 20
1132.899902
 10
-1101.234375
 20
1146.899902
 42
-0.414214
 10
-1100.234375
 20
1147.899902
 10
-1047.234375
 20
1147.899902
 42
-0.414214
 10
-1046.234375
 20
1146.899902
 10
-1046.234375
 20
1132.899902
  0
LWPOLYLINE
  5
D9
100
AcDbEntity
  8
LAYER22
370
    25
390
0
  6
Continuous
 62
     2
100
AcDbPolyline
 90
       16
 70
     1
 10
-1106.834473
 20
1146.89978
 10
-1103.03418
 20
1146.89978
 10
-1102.879883
 20
1147.457031
 10
-1104.612793
 20
1148.498291
 10
-1104.834473
 20
1148.909058
 10
-1104.458008
 20
1149.386719
 42
0.856945
 10
-1106.879639
 20
1165.011353
 10
-1106.879639
 20
1164.511353
 42
1.0
 10
-1106.879639
 20
1149.511353
 42
1.0
 10
-1106.879639
 20
1164.511353
 10
-1106.879639
 20
1165.011353
 42
0.871902
 10
-1109.039063
 20
1149.30835
 10
-1108.833984
 20
1148.909058
 10
-1109.055664
 20
1148.498291
 10
-1110.788818
 20
1147.457031
 10
-1110.634277
 20
1146.89978
  0
LWPOLYLINE
  5
DA
100
AcDbEntity
  8
LAYER22
370
    25
390
0
  6
Continuous
 62
     2
100
AcDbPolyline
 90
       16
 70
     1
 10
-1040.634277
 20
1146.89978
 10
-1044.43457
 20
1146.89978
 10
-1044.588867
 20
1147.457031
 10
-1042.855957
 20
1148.498291
 10
-1042.634277
 20
1148.909058
 10
-1043.010742
 20
1149.386719
 42
-0.856945
 10
-1040.589111
 20
1165.011353
 10
-1040.589111
 20
1164.511353
 42
1.0
 10
-1040.589111
 20
1149.511353
 42
1.0
 10
-1040.589111
 20
1164.511353
 10
-1040.589111
 20
1165.011353
 42
-0.871902
 10
-1038.429688
 20
1149.30835
 10
-1038.634766
 20
1148.909058
 10
-1038.413086
 20
1148.498291
 10
-1036.679932
 20
1147.457031
 10
-1036.834473
 20
1146.89978
  0
LWPOLYLINE
  5
DB
100
AcDbEntity
  8
LAYER22
370
    25
390
0
  6
Continuous
 62
     2
100
AcDbPolyline
 90
       30
 70
     0
 10
-1073.734375
 20
-1420.0
 10
-1046.234375
 20
-1420.0
 10
-1046.234375
 20
-1434.0
 42
-0.414214
 10
-1047.234375
 20
-1435.0
 10
-1050.484375
 20
-1435.0
 42
0.647625
 10
-1050.857544
 20
-1435.833374
 42
0.213431
 10
-1049.366943
 20
-1436.5
 10
-1043.125244
 20
-1436.499878
 42
0.744972
 10
-1042.855957
 20
-1435.598877
 10
-1044.588867
 20
-1434.557129
 10
-1044.43457
 20
-1434.0
 10
-1036.834473
 20
-1433.999878
 10
-1036.679932
 20
-1434.557129
 10
-1038.379883
 20
-1435.578491
 42
0.776162
 10
-1038.143555
 20
-1436.500366
 10
-1034.534424
 20
-1436.5
 42
0.414214
 10
-1030.534424
 20
-1432.5
 10
-1030.534424
 20
-1429.115967
 42
0.217187
 10
-1031.220825
 20
-1427.610596
 42
0.629276
 10
-1032.034424
 20
-1427.999023
 10
-1032.034424
 20
-1432.5
 42
-0.378639
 10
-1034.227783
 20
-1434.981079
 42
-0.358301
 10
-1035.034424
 20
-1434.0
 42
0.414214
 10
-1036.534424
 20
-1432.5
 10
-1044.734375
 20
-1432.5
 10
-1044.734375
 20
-1413.5
 10
-1046.234375
 20
-1413.5
 10
-1046.234375
 20
-1417.0
 42
-0.414214
 10
-1047.234375
 20
-1418.0
 10
-1073.734375
 20
-1418.0
  0
LWPOLYLINE
  5
DC
100
AcDbEntity
  8
LAYER22
370
    25
390
0
  6
Continuous
 62
     2
100
AcDbPolyline
 90
       30
 70
     0
 10
-1073.734375
 20
-1420.0
 10
-1101.234375
 20
-1420.0
 10
-1101.234375
 20
-1434.0
 42
0.414214
 10
-1100.234375
 20
-1435.0
 10
-1096.984375
 20
-1435.0
 42
-0.647625
 10
-1096.611206
 20
-1435.833374
 42
-0.213431
 10
-1098.101807
 20
-1436.5
 10
-1104.343506
 20
-1436.499878
 42
-0.744972
 10
-1104.612793
 20
-1435.598877
 10
-1102.879883
 20
-1434.557129
 10
-1103.03418
 20
-1434.0
 10
-1110.634277
 20
-1433.999878
 10
-1110.788818
 20
-1434.557129
 10
-1109.088867
 20
-1435.578491
 42
-0.776162
 10
-1109.325195
 20
-1436.500366
 10
-1112.934326
 20
-1436.5
 42
-0.414214
 10
-1116.934326
 20
-1432.5
 10
-1116.934326
 20
-1429.115967
 42
-0.217187
 10
-1116.247925
 20
-1427.610596
 42
-0.629276
 10
-1115.434326
 20
-1427.999023
 10
-1115.434326
 20
-1432.5
 42
0.378639
 10
-1113.240967
 20
-1434.981079
 42
0.358301
 10
-1112.434326
 20
-1434.0
 42
-0.414214
 10
-1110.934326
 20
-1432.5
 10
-1102.734375
 20
-1432.5
 10
-1102.734375
 20
-1413.5
 10
-1101.234375
 20
-1413.5
 10
-1101.234375
 20
-1417.0
 42
0.414214
 10
-1100.234375
 20
-1418.0
 10
-1073.734375
 20
-1418.0
  0
LWPOLYLINE
  5
DD
100
AcDbEntity
  8
LAYER22
370
    18
390
0
  6
Continuous
 62
     1
100
AcDbPolyline
 90
        6
 70
     1
 10
-1101.234375
 20
-1420.0
 10
-1101.234375
 20
-1434.0
 42
0.414214
 10
-1100.234375
 20
-1435.0
 10
-1047.234375
 20
-1435.0
 42
0.414214
 10
-1046.234375
 20
-1434.0
 10
-1046.234375
 20
-1420.0
  0
LWPOLYLINE
  5
DE
100
AcDbEntity
  8
LAYER22
370
    25
390
0
  6
Continuous
 62
     2
100
AcDbPolyline
 90
       16
 70
     1
 10
-1106.834473
 20
-1433.999878
 10
-1103.03418
 20
-1433.999878
 10
-1102.879883
 20
-1434.557129
 10
-1104.612793
 20
-1435.598389
 10
-1104.834473
 20
-1436.009155
 10
-1104.458008
 20
-1436.486816
 42
-0.856945
 10
-1106.879639
 20
-1452.11145
 10
-1106.879639
 20
-1451.61145
 42
1.0
 10
-1106.879639
 20
-1436.61145
 42
1.0
 10
-1106.879639
 20
-1451.61145
 10
-1106.879639
 20
-1452.11145
 42
-0.871902
 10
-1109.039063
 20
-1436.408447
 10
-1108.833984
 20
-1436.009155
 10
-1109.055664
 20
-1435.598389
 10
-1110.788818
 20
-1434.557129
 10
-1110.634277
 20
-1433.999878
  0
LWPOLYLINE
  5
DF
100
AcDbEntity
  8
LAYER22
370
    25
390
0
  6
Continuous
 62
     2
100
AcDbPolyline
 90
       16
 70
     1
 10
-1040.634277
 20
-1433.999878
 10
-1044.43457
 20
-1433.999878
 10
-1044.588867
 20
-1434.557129
 10
-1042.855957
 20
-1435.598389
 10
-1042.634277
 20
-1436.009155
 10
-1043.010742
 20
-1436.486816
 42
0.856945
 10
-1040.589111
 20
-1452.11145
 10
-1040.589111
 20
-1451.61145
 42
1.0
 10
-1040.589111
 20
-1436.61145
 42
1.0
 10
-1040.589111
 20
-1451.61145
 10
-1040.589111
 20
-1452.11145
 42
0.871902
 10
-1038.429688
 20
-1436.408447
 10
-1038.634766
 20
-1436.009155
 10
-1038.413086
 20
-1435.598389
 10
-1036.679932
 20
-1434.557129
 10
-1036.834473
 20
-1433.999878
  0
LWPOLYLINE
  5
E0
100
AcDbEntity
  8
LAYER22
370
    25
390
0
  6
Continuous
 62
     2
100
AcDbPolyline
 90
        4
 70
     1
 10
-1044.734375
 20
1145.399902
 10
-1032.234375
 20
1145.399902
 10
-1032.234375
 20
-1432.5
 10
-1044.734375
 20
-1432.5
  0
LWPOLYLINE
  5
E1
100
AcDbEntity
  8
LAYER22
370
    25
390
0
  6
Continuous
 62
     2
100
AcDbPolyline
 90
        4
 70
     1
 10
-1102.734375
 20
1145.399902
 10
-1115.234375
 20
1145.399902
 10
-1115.234375
 20
-1432.5
 10
-1102.734375
 20
-1432.5
  0
LWPOLYLINE
  5
E2
100
AcDbEntity
  8
LAYER22
370
    25
390
0
  6
Continuous
 62
     2
100
AcDbPolyline
 90
        4
 70
     1
 10
-1148.734375
 20
1318.0
 10
-998.734375
 20
1318.0
 10
-998.734375
 20
1248.0
 10
-1148.734375
 20
1248.0
  0
LWPOLYLINE
  5
E3
100
AcDbEntity
  8
LAYER22
370
    25
390
0
  6
Continuous
 62
     2
100
AcDbPolyline
 90
       30
 70
     0
 10
2208.5
 20
-1637.0
 10
2208.5
 20
-1609.5
 10
2222.5
 20
-1609.5
 42
-0.414214
 10
2223.5
 20
-1610.5
 10
2223.5
 20
-1613.75
 42
0.647625
 10
2224.333496
 20
-1614.123169
 42
0.213431
 10
2225.0
 20
-1612.632568
 10
2225.0
 20
-1606.390869
 42
0.744972
 10
2224.098877
 20
-1606.121582
 10
2223.057129
 20
-1607.854492
 10
2222.5
 20
-1607.700195
 10
2222.5
 20
-1600.100098
 10
2223.057129
 20
-1599.945557
 10
2224.078613
 20
-1601.645508
 42
0.776162
 10
2225.000488
 20
-1601.40918
 10
2225.0
 20
-1597.800049
 42
0.414214
 10
2221.0
 20
-1593.800049
 10
2217.615967
 20
-1593.800049
 42
0.217187
 10
2216.110596
 20
-1594.48645
 42
0.629276
 10
2216.499023
 20
-1595.300049
 10
2221.0
 20
-1595.300049
 42
-0.378639
 10
2223.481201
 20
-1597.493408
 42
-0.358301
 10
2222.5
 20
-1598.300049
 42
0.414214
 10
2221.0
 20
-1599.800049
 10
2221.0
 20
-1608.0
 10
2202.0
 20
-1608.0
 10
2202.0
 20
-1609.5
 10
2205.5
 20
-1609.5
 42
-0.414214
 10
2206.5
 20
-1610.5
 10
2206.5
 20
-1637.0
  0
LWPOLYLINE
  5
E4
100
AcDbEntity
  8
LAYER22
370
    25
390
0
  6
Continuous
 62
     2
100
AcDbPolyline
 90
       30
 70
     0
 10
2208.5
 20
-1637.0
 10
2208.5
 20
-1664.5
 10
2222.5
 20
-1664.5
 42
0.414214
 10
2223.5
 20
-1663.5
 10
2223.5
 20
-1660.25
 42
-0.647625
 10
2224.333496
 20
-1659.876831
 42
-0.213431
 10
2225.0
 20
-1661.367432
 10
2225.0
 20
-1667.609131
 42
-0.744972
 10
2224.098877
 20
-1667.878418
 10
2223.057129
 20
-1666.145508
 10
2222.5
 20
-1666.299805
 10
2222.5
 20
-1673.899902
 10
2223.057129
 20
-1674.054443
 10
2224.078613
 20
-1672.354492
 42
-0.776162
 10
2225.000488
 20
-1672.59082
 10
2225.0
 20
-1676.199951
 42
-0.414214
 10
2221.0
 20
-1680.199951
 10
2217.615967
 20
-1680.199951
 42
-0.217187
 10
2216.110596
 20
-1679.51355
 42
-0.629276
 10
2216.499023
 20
-1678.699951
 10
2221.0
 20
-1678.699951
 42
0.378639
 10
2223.481201
 20
-1676.506592
 42
0.358301
 10
2222.5
 20
-1675.699951
 42
-0.414214
 10
2221.0
 20
-1674.199951
 10
2221.0
 20
-1666.0
 10
2202.0
 20
-1666.0
 10
2202.0
 20
-1664.5
 10
2205.5
 20
-1664.5
 42
0.414214
 10
2206.5
 20
-1663.5
 10
2206.5
 20
-1637.0
  0
LWPOLYLINE
  5
E5
100
AcDbEntity
  8
LAYER22
370
    18
390
0
  6
Continuous
 62
     1
100
AcDbPolyline
 90
        6
 70
     1
 10
2208.5
 20
-1664.5
 10
2222.5
 20
-1664.5
 42
0.414214
 10
2223.5
 20
-1663.5
 10
2223.5
 20
-1610.5
 42
0.414214
 10
2222.5
 20
-1609.5
 10
2208.5
 20
-1609.5
  0
LWPOLYLINE
  5
E6
100
AcDbEntity
  8
LAYER22
370
    25
390
0
  6
Continuous
 62
     2
100
AcDbPolyline
 90
        4
 70
     1
 10
1333.0
 20
-1608.0
 10
1333.0
 20
-1595.5
 10
2221.0
 20
-1595.5
 10
2221.0
 20
-1608.0
  0
LWPOLYLINE
  5
E7
100
AcDbEntity
  8
LAYER22
370
    25
390
0
  6
Continuous
 62
     2
100
AcDbPolyline
 90
        4
 70
     1
 10
1333.0
 20
-1666.0
 10
1333.0
 20
-1678.5
 10
2221.0
 20
-1678.5
 10
2221.0
 20
-1666.0
  0
LWPOLYLINE
  5
E8
100
AcDbEntity
  8
LAYER22
370
    25
390
0
  6
Continuous
 62
     2
100
AcDbPolyline
 90
       30
 70
     0
 10
1345.5
 20
-1637.0
 10
1345.5
 20
-1609.5
 10
1331.5
 20
-1609.5
 42
0.414214
 10
1330.5
 20
-1610.5
 10
1330.5
 20
-1613.75
 42
-0.647625
 10
1329.666626
 20
-1614.123169
 42
-0.213431
 10
1329.0
 20
-1612.632568
 10
1329.000122
 20
-1606.390869
 42
-0.744972
 10
1329.901123
 20
-1606.121582
 10
1330.942871
 20
-1607.854492
 10
1331.5
 20
-1607.700195
 10
1331.500122
 20
-1600.100098
 10
1330.942871
 20
-1599.945557
 10
1329.921509
 20
-1601.645508
 42
-0.776162
 10
1328.999634
 20
-1601.40918
 10
1329.0
 20
-1597.800049
 42
-0.414214
 10
1333.0
 20
-1593.800049
 10
1336.384033
 20
-1593.800049
 42
-0.217187
 10
1337.889404
 20
-1594.48645
 42
-0.629276
 10
1337.500977
 20
-1595.300049
 10
1333.0
 20
-1595.300049
 42
0.378639
 10
1330.518921
 20
-1597.493408
 42
0.358301
 10
1331.5
 20
-1598.300049
 42
-0.414214
 10
1333.0
 20
-1599.800049
 10
1333.0
 20
-1608.0
 10
1352.0
 20
-1608.0
 10
1352.0
 20
-1609.5
 10
1348.5
 20
-1609.5
 42
0.414214
 10
1347.5
 20
-1610.5
 10
1347.5
 20
-1637.0
  0
LWPOLYLINE
  5
E9
100
AcDbEntity
  8
LAYER22
370
    25
390
0
  6
Continuous
 62
     2
100
AcDbPolyline
 90
       30
 70
     0
 10
1345.5
 20
-1637.0
 10
1345.5
 20
-1664.5
 10
1331.5
 20
-1664.5
 42
-0.414214
 10
1330.5
 20
-1663.5
 10
1330.5
 20
-1660.25
 42
0.647625
 10
1329.666626
 20
-1659.876831
 42
0.213431
 10
1329.0
 20
-1661.367432
 10
1329.000122
 20
-1667.609131
 42
0.744972
 10
1329.901123
 20
-1667.878418
 10
1330.942871
 20
-1666.145508
 10
1331.5
 20
-1666.299805
 10
1331.500122
 20
-1673.899902
 10
1330.942871
 20
-1674.054443
 10
1329.921509
 20
-1672.354492
 42
0.776162
 10
1328.999634
 20
-1672.59082
 10
1329.0
 20
-1676.199951
 42
0.414214
 10
1333.0
 20
-1680.199951
 10
1336.384033
 20
-1680.199951
 42
0.217187
 10
1337.889404
 20
-1679.51355
 42
0.629276
 10
1337.500977
 20
-1678.699951
 10
1333.0
 20
-1678.699951
 42
-0.378639
 10
1330.518921
 20
-1676.506592
 42
-0.358301
 10
1331.5
 20
-1675.699951
 42
0.414214
 10
1333.0
 20
-1674.199951
 10
1333.0
 20
-1666.0
 10
1352.0
 20
-1666.0
 10
1352.0
 20
-1664.5
 10
1348.5
 20
-1664.5
 42
-0.414214
 10
1347.5
 20
-1663.5
 10
1347.5
 20
-1637.0
  0
LWPOLYLINE
  5
EA
100
AcDbEntity
  8
LAYER22
370
    18
390
0
  6
Continuous
 62
     1
100
AcDbPolyline
 90
        6
 70
     1
 10
1345.5
 20
-1664.5
 10
1331.5
 20
-1664.5
 42
-0.414214
 10
1330.5
 20
-1663.5
 10
1330.5
 20
-1610.5
 42
-0.414214
 10
1331.5
 20
-1609.5
 10
1345.5
 20
-1609.5
  0
LWPOLYLINE
  5
EB
100
AcDbEntity
  8
LAYER22
370
    25
390
0
  6
Continuous
 62
     2
100
AcDbPolyline
 90
       12
 70
     0
 10
1331.5
 20
-1670.099609
 10
1331.5
 20
-1666.299561
 10
1330.943359
 20
-1666.14502
 10
1329.921875
 20
-1667.844727
 42
-0.792023
 10
1329.002319
 20
-1667.589478
 10
1329.0
 20
-1665.349609
 42
1.0
 10
1327.0
 20
-1665.349609
 10
1327.0
 20
-1670.099609
 10
1327.5
 20
-1670.099609
 10
1327.5
 20
-1665.349609
 42
-1.0
 10
1328.5
 20
-1665.349609
 10
1328.5
 20
-1670.099609
  0
LWPOLYLINE
  5
EC
100
AcDbEntity
  8
LAYER22
370
    25
390
0
  6
Continuous
 62
     2
100
AcDbPolyline
 90
       12
 70
     0
 10
1331.5
 20
-1670.099609
 10
1331.5
 20
-1673.899414
 10
1330.943359
 20
-1674.053955
 10
1329.921875
 20
-1672.354004
 42
0.792023
 10
1329.002197
 20
-1672.609497
 10
1329.0
 20
-1674.849609
 42
-1.0
 10
1327.0
 20
-1674.849609
 10
1327.0
 20
-1670.099609
 10
1327.5
 20
-1670.099609
 10
1327.5
 20
-1674.849609
 42
1.0
 10
1328.5
 20
-1674.849609
 10
1328.5
 20
-1670.099609
  0
LWPOLYLINE
  5
ED
100
AcDbEntity
  8
LAYER22
370
    25
390
0
  6
Continuous
 62
     2
100
AcDbPolyline
 90
       12
 70
     0
 10
1331.5
 20
-1603.900391
 10
1331.5
 20
-1600.100342
 10
1330.943359
 20
-1599.945801
 10
1329.921875
 20
-1601.645508
 42
-0.792023
 10
1329.002319
 20
-1601.390259
 10
1329.0
 20
-1599.150391
 42
1.0
 10
1327.0
 20
-1599.150391
 10
1327.0
 20
-1603.900391
 10
1327.5
 20
-1603.900391
 10
1327.5
 20
-1599.150391
 42
-1.0
 10
1328.5
 20
-1599.150391
 10
1328.5
 20
-1603.900391
  0
LWPOLYLINE
  5
EE
100
AcDbEntity
  8
LAYER22
370
    25
390
0
  6
Continuous
 62
     2
100
AcDbPolyline
 90
       12
 70
     0
 10
1331.5
 20
-1603.900391
 10
1331.5
 20
-1607.700195
 10
1330.943359
 20
-1607.854736
 10
1329.921875
 20
-1606.154785
 42
0.792023
 10
1329.002197
 20
-1606.410278
 10
1329.0
 20
-1608.650391
 42
-1.0
 10
1327.0
 20
-1608.650391
 10
1327.0
 20
-1603.900391
 10
1327.5
 20
-1603.900391
 10
1327.5
 20
-1608.650391
 42
1.0
 10
1328.5
 20
-1608.650391
 10
1328.5
 20
-1603.900391
  0
LWPOLYLINE
  5
EF
100
AcDbEntity
  8
LAYER22
370
    25
390
0
  6
Continuous
 62
     2
100
AcDbPolyline
 90
        8
 70
     0
 10
2222.5
 20
-1603.900391
 10
2222.5
 20
-1600.100342
 10
2223.058594
 20
-1599.945801
 10
2224.099609
 20
-1601.678955
 42
0.553069
 10
2224.930664
 20
-1601.661743
 42
-0.744336
 10
2232.246582
 20
-1603.900391
 10
2231.746094
 20
-1603.900391
 42
1.0
 10
2224.746094
 20
-1603.900391
  0
LWPOLYLINE
  5
F0
100
AcDbEntity
  8
LAYER22
370
    25
390
0
  6
Continuous
 62
     2
100
AcDbPolyline
 90
        8
 70
     0
 10
2222.5
 20
-1603.900391
 10
2222.5
 20
-1607.700439
 10
2223.058594
 20
-1607.854736
 10
2224.099609
 20
-1606.121826
 42
-0.553069
 10
2224.930664
 20
-1606.139038
 42
0.744336
 10
2232.246582
 20
-1603.900391
 10
2231.746094
 20
-1603.900391
 42
-1.0
 10
2224.746094
 20
-1603.900391
  0
LWPOLYLINE
  5
F1
100
AcDbEntity
  8
LAYER22
370
    18
390
0
  6
Continuous
 62
     1
100
AcDbPolyline
 90
        4
 70
     1
 10
2127.0
 20
-1678.5
 10
2129.5
 20
-1683.0
 10
2174.5
 20
-1683.0
 10
2177.0
 20
-1678.5
  0
LWPOLYLINE
  5
F2
100
AcDbEntity
  8
LAYER22
370
    18
390
0
  6
Continuous
 62
     1
100
AcDbPolyline
 90
       10
 70
     1
 10
2143.5
 20
-1683.0
 10
2143.5
 20
-1703.0
 42
-0.414214
 10
2128.5
 20
-1718.0
 10
2076.474609
 20
-1718.0
 42
-0.052792
 10
2055.535156
 20
-1715.783081
 42
0.64242
 10
2053.787598
 20
-1724.707642
 42
0.074479
 10
2075.761719
 20
-1727.998901
 10
2155.5
 20
-1728.0
 42
0.414214
 10
2160.5
 20
-1723.0
 10
2160.5
 20
-1683.0
  0
LWPOLYLINE
  5
F3
100
AcDbEntity
  8
LAYER22
370
    18
390
0
  6
Continuous
 62
     1
100
AcDbPolyline
 90
        4
 70
     1
 10
2127.0
 20
-1595.5
 10
2129.5
 20
-1591.0
 10
2174.5
 20
-1591.0
 10
2177.0
 20
-1595.5
  0
LWPOLYLINE
  5
F4
100
AcDbEntity
  8
LAYER22
370
    18
390
0
  6
Continuous
 62
     1
100
AcDbPolyline
 90
       10
 70
     1
 10
2143.5
 20
-1591.0
 10
2143.5
 20
-1571.0
 42
0.414214
 10
2128.5
 20
-1556.0
 10
2076.474609
 20
-1556.0
 42
0.052792
 10
2055.535156
 20
-1558.216919
 42
-0.64242
 10
2053.787598
 20
-1549.292358
 42
-0.074479
 10
2075.761719
 20
-1546.001099
 10
2155.5
 20
-1546.0
 42
-0.414214
 10
2160.5
 20
-1551.0
 10
2160.5
 20
-1591.0
  0
MTEXT
  5
F5
100
AcDbEntity
  8
LAYER01
390
0
 62
     2
100
AcDbMText
 10
-1759.0
 20
1307.0
 30
0.0
 40
11.25
 41
0.0
 71
     7
 72
     1
  1
FLEXIO 85S
 11
1.0
 21
0.0
 31
0.0
 73
     1
 44
1.333333
  0
MTEXT
  5
F6
100
AcDbEntity
  8
LAYER01
390
0
 62
     2
100
AcDbMText
 10
-1251.0
 20
1339.0
 30
0.0
 40
11.25
 41
0.0
 71
     7
 72
     1
  1
FLEXIO 85H
 11
1.0
 21
0.0
 31
0.0
 73
     1
 44
1.333333
  0
MTEXT
  5
F7
100
AcDbEntity
  8
LAYER22
390
0
 62
     2
100
AcDbMText
 10
-71.0
 20
-1577.0
 30
0.0
 40
11.25
 41
0.0
 71
     7
 72
     1
  1
maximaal
 11
1.0
 21
0.0
 31
0.0
 73
     1
 44
1.333333
  0
MTEXT
  5
F8
100
AcDbEntity
  8
LAYER22
390
0
 62
     2
100
AcDbMText
 10
833.0
 20
-1577.0
 30
0.0
 40
11.25
 41
0.0
 71
     7
 72
     1
  1
maximaal
 11
1.0
 21
0.0
 31
0.0
 73
     1
 44
1.333333
  0
MTEXT
  5
F9
100
AcDbEntity
  8
LAYER22
390
0
 62
     2
100
AcDbMText
 10
1736.0
 20
-1577.0
 30
0.0
 40
11.25
 41
0.0
 71
     7
 72
     1
  1
maximaal
 11
1.0
 21
0.0
 31
0.0
 73
     1
 44
1.333333
  0
LWPOLYLINE
  5
FA
100
AcDbEntity
  8
LAYER22
370
    18
390
0
  6
Continuous
 62
     1
100
AcDbPolyline
 90
       14
 70
     1
 10
2127.0
 20
-435.5
 10
2127.0
 20
-394.0
 42
-0.414214
 10
2132.0
 20
-389.0
 10
2172.0
 20
-389.0
 42
-0.414214
 10
2177.0
 20
-394.0
 10
2177.0
 20
-564.0
 42
-0.414214
 10
2172.0
 20
-569.0
 10
2132.0
 20
-569.0
 42
-0.414214
 10
2127.0
 20
-564.0
 10
2127.0
 20
-452.5
 10
2155.5
 20
-452.5
 42
0.414213
 10
2160.5
 20
-447.5
 10
2160.5
 20
-440.5
 42
0.414214
 10
2155.5
 20
-435.5
  0
LWPOLYLINE
  5
FB
100
AcDbEntity
  8
LAYER22
370
    18
390
0
  6
Continuous
 62
     1
100
AcDbPolyline
 90
        8
 70
     1
 10
2155.5
 20
-435.5
 42
-0.414214
 10
2160.5
 20
-440.5
 10
2160.5
 20
-447.5
 42
-0.414214
 10
2155.5
 20
-452.5
 10
2056.701172
 20
-452.5
 42
-0.414214
 10
2051.701172
 20
-447.5
 10
2051.701172
 20
-440.5
 42
-0.414213
 10
2056.701172
 20
-435.5
  0
MTEXT
  5
FC
100
AcDbEntity
  8
LAYER22
390
0
 62
     4
100
AcDbMText
 10
-2218.0
 20
-330.0
 30
0.0
 40
22.5
 41
0.0
 71
     7
 72
     1
  1
(hangend met vloerrail)
 11
0.0
 21
1.0
 31
0.0
 73
     1
 44
1.333333
  0
MTEXT
  5
FD
100
AcDbEntity
  8
LAYER22
390
0
 62
     4
100
AcDbMText
 10
-1674.0
 20
-326.0
 30
0.0
 40
22.5
 41
0.0
 71
     7
 72
     1
  1
(staand met vloerrail)
 11
0.0
 21
1.0
 31
0.0
 73
     1
 44
1.333333
  0
MTEXT
  5
FE
100
AcDbEntity
  8
LAYER22
390
0
 62
     4
100
AcDbMText
 10
-1162.0
 20
-327.0
 30
0.0
 40
22.5
 41
0.0
 71
     7
 72
     1
  1
(hangend zonder vloerrail)
 11
0.0
 21
1.0
 31
0.0
 73
     1
 44
1.333333
  0
ENDSEC
  0
SECTION
  2
OBJECTS
  0
DICTIONARY
  5
19
100
AcDbDictionary
280
     0
281
     1
  3
ACAD_GROUP
350
1A
  3
ACAD_MLINESTYLE
350
1B
  3
ACAD_LAYOUT
350
1E
  3
ACAD_PLOTSETTINGS
350
22
  3
ACAD_PLOTSTYLENAME
350
1F
  3
ACAD_WIPEOUT_VARS
350
23
  0
DICTIONARY
  5
1A
102
{ACAD_REACTORS
330
19
102
}
100
AcDbDictionary
280
     0
281
     1
  0
DICTIONARY
  5
1B
102
{ACAD_REACTORS
330
19
102
}
100
AcDbDictionary
280
     0
281
     1
  3
Standard
350
1C
  0
MLINESTYLE
  5
1C
102
{ACAD_REACTORS
330
1B
102
}
100
AcDbMlineStyle
  2
Standard
 70
     0
  3

 62
     0
 51
90.0
 52
90.0
 71
     2
 49
0.5
 62
   256
  6
ByLayer
 49
-0.5
 62
   256
  6
ByLayer
  0
ACDBDICTIONARYWDFLT
  5
1F
102
{ACAD_REACTORS
330
19
102
}
100
AcDbDictionary
281
     1
  3
Normal
350
1D
100
AcDbDictionaryWithDefault
340
1D
  0
ACDBPLACEHOLDER
  5
1D
102
{ACAD_REACTORS
330
1F
102
}
  0
LAYOUT
  5
20
102
{ACAD_REACTORS
330
1E
102
}
100
AcDbPlotSettings
  1

  2

  4

  6

 40
0.0
 41
0.0
 42
0.0
 43
0.0
 44
0.0
 45
0.0
 46
0.0
 47
0.0
 48
0.0
 49
0.0
140
0.0
141
0.0
142
1.0
143
1.0
 70
  1024
 72
     0
 73
     0
 74
     0
  7

 75
     0
147
1.0
148
0.0
149
0.0
100
AcDbLayout
  1
Model
 70
     0
 71
     0
 10
0.0
 20
0.0
 11
0.0
 21
0.0
 12
0.0
 22
0.0
 32
0.0
 14
0.0
 24
0.0
 34
0.0
 15
0.0
 25
0.0
 35
0.0
146
0.0
 13
0.0
 23
0.0
 33
0.0
 16
0.0
 26
0.0
 36
0.0
 17
0.0
 27
0.0
 37
0.0
 76
     0
330
A
331
0
345
0
346
0
  0
LAYOUT
  5
21
102
{ACAD_REACTORS
330
1E
102
}
100
AcDbPlotSettings
  1

  2

  4

  6

 40
0.0
 41
0.0
 42
0.0
 43
0.0
 44
0.0
 45
0.0
 46
0.0
 47
0.0
 48
0.0
 49
0.0
140
0.0
141
0.0
142
1.0
143
1.0
 70
     0
 72
     0
 73
     0
 74
     0
  7

 75
     0
147
1.0
148
0.0
149
0.0
100
AcDbLayout
  1
Layout1
 70
     0
 71
     0
 10
0.0
 20
0.0
 11
0.0
 21
0.0
 12
0.0
 22
0.0
 32
0.0
 14
0.0
 24
0.0
 34
0.0
 15
0.0
 25
0.0
 35
0.0
146
0.0
 13
0.0
 23
0.0
 33
0.0
 16
0.0
 26
0.0
 36
0.0
 17
0.0
 27
0.0
 37
0.0
 76
     0
330
B
331
0
345
0
346
0
  0
DICTIONARY
  5
1E
102
{ACAD_REACTORS
330
19
102
}
100
AcDbDictionary
280
     0
281
     1
  3
Layout1
350
21
  3
Model
350
20
  0
DICTIONARY
  5
22
102
{ACAD_REACTORS
330
19
102
}
100
AcDbDictionary
280
     0
281
     1
  0
WIPEOUTVARIABLES
  5
23
100
AcDbWipeoutVariables
 70
     1
  0
ENDSEC
  0
EOF
