  0
SECTION
  2
HEADER
  9
$ACADVER
  1
AC1015
  9
$ACADMAINTVER
 70
     6
  9
$DWGCODEPAGE
  3
ANSI_1252
  9
$INSBASE
 10
0.0
 20
0.0
 30
0.0
  9
$EXTMIN
 10
1.000000E+20
 20
1.000000E+20
 30
1.000000E+20
  9
$EXTMAX
 10
-1.000000E+20
 20
-1.000000E+20
 30
-1.000000E+20
  9
$LIMMIN
 10
0.0
 20
0.0
  9
$LIMMAX
 10
0.0
 20
0.0
  9
$ORTHOMODE
 70
     0
  9
$REGENMODE
 70
     1
  9
$FILLMODE
 70
     1
  9
$QTEXTMODE
 70
     0
  9
$MIRRTEXT
 70
     1
  9
$LTSCALE
 40
50.0
  9
$ATTMODE
 70
     1
  9
$TEXTSIZE
 40
0.2
  9
$TRACEWID
 40
0.05
  9
$TEXTSTYLE
  7
Standard
  9
$CLAYER
  8
0
  9
$CELTYPE
  6
Continuous
  9
$CECOLOR
 62
   256
  9
$CELTSCALE
 40
1.0
  9
$DISPSILH
 70
     0
  9
$DIMSCALE
 40
1.0
  9
$DIMASZ
 40
0.18
  9
$DIMEXO
 40
0.0625
  9
$DIMDLI
 40
0.38
  9
$DIMRND
 40
0.0
  9
$DIMDLE
 40
0.0
  9
$DIMEXE
 40
0.18
  9
$DIMTP
 40
0.0
  9
$DIMTM
 40
0.0
  9
$DIMTXT
 40
0.18
  9
$DIMCEN
 40
0.09
  9
$DIMTSZ
 40
0.0
  9
$DIMTOL
 70
     0
  9
$DIMLIM
 70
     0
  9
$DIMTIH
 70
     1
  9
$DIMTOH
 70
     1
  9
$DIMSE1
 70
     0
  9
$DIMSE2
 70
     0
  9
$DIMTAD
 70
     0
  9
$DIMZIN
 70
     0
  9
$DIMBLK
  1

  9
$DIMASO
 70
     1
  9
$DIMSHO
 70
     1
  9
$DIMPOST
  1

  9
$DIMAPOST
  1

  9
$DIMALT
 70
     0
  9
$DIMALTD
 70
     2
  9
$DIMALTF
 40
25.4
  9
$DIMLFAC
 40
1.0
  9
$DIMTOFL
 70
     0
  9
$DIMTVP
 40
0.0
  9
$DIMTIX
 70
     0
  9
$DIMSOXD
 70
     0
  9
$DIMSAH
 70
     0
  9
$DIMBLK1
  1

  9
$DIMBLK2
  1

  9
$DIMSTYLE
  2
Standard
  9
$DIMCLRD
 70
     0
  9
$DIMCLRE
 70
     0
  9
$DIMCLRT
 70
     0
  9
$DIMTFAC
 40
1.0
  9
$DIMGAP
 40
0.09
  9
$DIMJUST
 70
     0
  9
$DIMSD1
 70
     0
  9
$DIMSD2
 70
     0
  9
$DIMTOLJ
 70
     1
  9
$DIMTZIN
 70
     0
  9
$DIMALTZ
 70
     0
  9
$DIMALTTZ
 70
     0
  9
$DIMUPT
 70
     0
  9
$DIMDEC
 70
     4
  9
$DIMTDEC
 70
     4
  9
$DIMALTU
 70
     2
  9
$DIMALTTD
 70
     2
  9
$DIMTXSTY
  7
Standard
  9
$DIMAUNIT
 70
     0
  9
$DIMADEC
 70
     0
  9
$DIMALTRND
 40
0.0
  9
$DIMAZIN
 70
     0
  9
$DIMDSEP
 70
     0
  9
$DIMATFIT
 70
     3
  9
$DIMFRAC
 70
     0
  9
$DIMLDRBLK
  1

  9
$DIMLUNIT
 70
     2
  9
$DIMLWD
 70
     0
  9
$DIMLWE
 70
     0
  9
$DIMTMOVE
 70
     0
  9
$LUNITS
 70
     2
  9
$LUPREC
 70
     4
  9
$SKETCHINC
 40
0.1
  9
$FILLETRAD
 40
0.0
  9
$AUNITS
 70
     0
  9
$AUPREC
 70
     0
  9
$MENU
  1
acad
  9
$ELEVATION
 40
0.0
  9
$PELEVATION
 40
0.0
  9
$THICKNESS
 40
0.0
  9
$LIMCHECK
 70
     0
  9
$CHAMFERA
 40
0.0
  9
$CHAMFERB
 40
0.0
  9
$CHAMFERC
 40
0.0
  9
$CHAMFERD
 40
0.0
  9
$SKPOLY
 70
     0
  9
$TDCREATE
 40
0.000000000
  9
$TDUCREATE
 40
0.000000000
  9
$TDUPDATE
 40
0.000000000
  9
$TDUUPDATE
 40
0.000000000
  9
$TDINDWG
 40
0.0000000000
  9
$TDUSRTIMER
 40
0.0000000000
  9
$USRTIMER
 70
     1
  9
$ANGBASE
 50
0.0
  9
$ANGDIR
 70
     0
  9
$PDMODE
 70
     0
  9
$PDSIZE
 40
0.0
  9
$PLINEWID
 40
0.0
  9
$SPLFRAME
 70
     0
  9
$SPLINETYPE
 70
     6
  9
$SPLINESEGS
 70
   120
  9
$HANDSEED
  5
1F6
  9
$SURFTAB1
 70
     6
  9
$SURFTAB2
 70
     6
  9
$SURFTYPE
 70
     6
  9
$SURFU
 70
     6
  9
$SURFV
 70
     6
  9
$UCSBASE
  2

  9
$UCSNAME
  2

  9
$UCSORG
 10
0.0
 20
0.0
 30
0.0
  9
$UCSXDIR
 10
1.0
 20
0.0
 30
0.0
  9
$UCSYDIR
 10
0.0
 20
1.0
 30
0.0
  9
$UCSORTHOREF
  2

  9
$UCSORTHOVIEW
 70
     0
  9
$UCSORGTOP
 10
0.0
 20
0.0
 30
0.0
  9
$UCSORGBOTTOM
 10
0.0
 20
0.0
 30
0.0
  9
$UCSORGLEFT
 10
0.0
 20
0.0
 30
0.0
  9
$UCSORGRIGHT
 10
0.0
 20
0.0
 30
0.0
  9
$UCSORGFRONT
 10
0.0
 20
0.0
 30
0.0
  9
$UCSORGBACK
 10
0.0
 20
0.0
 30
0.0
  9
$PUCSBASE
  2

  9
$PUCSNAME
  2

  9
$PUCSORG
 10
0.0
 20
0.0
 30
0.0
  9
$PUCSXDIR
 10
1.0
 20
0.0
 30
0.0
  9
$PUCSYDIR
 10
0.0
 20
1.0
 30
0.0
  9
$PUCSORTHOREF
  2

  9
$PUCSORTHOVIEW
 70
     0
  9
$PUCSORGTOP
 10
0.0
 20
0.0
 30
0.0
  9
$PUCSORGBOTTOM
 10
0.0
 20
0.0
 30
0.0
  9
$PUCSORGLEFT
 10
0.0
 20
0.0
 30
0.0
  9
$PUCSORGRIGHT
 10
0.0
 20
0.0
 30
0.0
  9
$PUCSORGFRONT
 10
0.0
 20
0.0
 30
0.0
  9
$PUCSORGBACK
 10
0.0
 20
0.0
 30
0.0
  9
$USERI1
 70
 12345
  9
$USERI2
 70
     0
  9
$USERI3
 70
     0
  9
$USERI4
 70
     0
  9
$USERI5
 70
     0
  9
$USERR1
 40
0.0
  9
$USERR2
 40
0.0
  9
$USERR3
 40
0.0
  9
$USERR4
 40
0.0
  9
$USERR5
 40
0.0
  9
$WORLDVIEW
 70
     1
  9
$SHADEDGE
 70
     3
  9
$SHADEDIF
 70
    70
  9
$TILEMODE
 70
     1
  9
$MAXACTVP
 70
    16
  9
$PINSBASE
 10
0.0
 20
0.0
 30
0.0
  9
$PLIMCHECK
 70
     0
  9
$PEXTMIN
 10
1.000000E+20
 20
1.000000E+20
 30
1.000000E+20
  9
$PEXTMAX
 10
-1.000000E+20
 20
-1.000000E+20
 30
-1.000000E+20
  9
$PLIMMIN
 10
0.0
 20
0.0
  9
$PLIMMAX
 10
12.0
 20
9.0
  9
$UNITMODE
 70
     0
  9
$VISRETAIN
 70
     0
  9
$PLINEGEN
 70
     1
  9
$PSLTSCALE
 70
     0
  9
$TREEDEPTH
 70
  3020
  9
$CMLSTYLE
  2
Standard
  9
$CMLJUST
 70
     0
  9
$CMLSCALE
 40
1.0
  9
$PROXYGRAPHICS
 70
     0
  9
$MEASUREMENT
 70
     0
  9
$CELWEIGHT
370
     0
  9
$ENDCAPS
280
     0
  9
$JOINSTYLE
280
     0
  9
$LWDISPLAY
290
     0
  9
$INSUNITS
 70
     0
  9
$HYPERLINKBASE
  1

  9
$STYLESHEET
  1

  9
$XEDIT
290
     1
  9
$CEPSNTYPE
380
     0
  9
$PSTYLEMODE
290
     1
  9
$FINGERPRINTGUID
  2

  9
$VERSIONGUID
  2

  9
$EXTNAMES
290
     1
  9
$PSVPSCALE
 40
0.0
  0
ENDSEC
  0
SECTION
  2
CLASSES
  0
CLASS
  1
LWPOLYLINE
  2
AcDbPolyline
  3
AutoCAD 2000
 90
        0
280
     0
281
     1
  0
CLASS
  1
IMAGE
  2
AcDbRasterImage
  3
ISM
 90
      127
280
     0
281
     1
  0
CLASS
  1
OLE2FRAME
  2
AcDbOle2Frame
  3
AutoCAD 2000
 90
        0
280
     0
281
     1
  0
CLASS
  1
HATCH
  2
AcDbHatch
  3
AutoCAD 2000
 90
        0
280
     0
281
     1
  0
CLASS
  1
DICTIONARYVAR
  2
AcDbDictionaryVar
  3
AutoCAD 2000
 90
        0
280
     0
281
     0
  0
CLASS
  1
RASTERVARIABLES
  2
AcDbRasterVariables
  3
ISM
 90
        0
280
     0
281
     0
  0
CLASS
  1
IMAGEDEF
  2
AcDbRasterImageDef
  3
ISM
 90
        0
280
     0
281
     0
  0
CLASS
  1
IMAGEDEF_REACTOR
  2
AcDbRasterImageDefReactor
  3
ISM
 90
        1
280
     0
281
     0
  0
CLASS
  1
IDBUFFER
  2
AcDbIdBuffer
  3
AutoCAD 2000
 90
        0
280
     0
281
     0
  0
CLASS
  1
SPATIAL_FILTER
  2
AcDbSpatialFilter
  3
AutoCAD 2000
 90
        0
280
     0
281
     0
  0
CLASS
  1
XRECORD
  2
AcDbXrecord
  3
AutoCAD 2000
 90
        0
280
     0
281
     0
  0
CLASS
  1
SORTENTSTABLE
  2
AcDbSortentsTable
  3
AutoCAD 2000
 90
        0
280
     0
281
     0
  0
CLASS
  1
LAYER_INDEX
  2
AcDbLayerIndex
  3
AutoCAD 2000
 90
        0
280
     0
281
     0
  0
CLASS
  1
SPATIAL_INDEX
  2
AcDbSpatialIndex
  3
AutoCAD 2000
 90
        0
280
     0
281
     0
  0
CLASS
  1
OBJECT_PTR
  2
CAseDLPNTableRecord
  3
"ASE-LPNTableRecord"
 90
        1
280
     0
281
     0
  0
CLASS
  1
LAYOUT
  2
AcDbLayout
  3
AutoCAD 2000
 90
        0
280
     0
281
     0
  0
CLASS
  1
PLOTSETTINGS
  2
AcDbPlotSettings
  3
AutoCAD 2000
 90
        0
280
     0
281
     0
  0
CLASS
  1
ACDBDICTIONARYWDFLT
  2
AcDbDictionaryWithDefault
  3
AutoCAD 2000
 90
        0
280
     0
281
     0
  0
CLASS
  1
ACDBPLACEHOLDER
  2
AcDbPlaceHolder
  3
AutoCAD 2000
 90
        0
280
     0
281
     0
  0
CLASS
  1
VBA_PROJECT
  2
AcDbVbaProject
  3
acadvba
 90
        0
280
     0
281
     0
  0
CLASS
  1
WIPEOUT
  2
AcDbWipeout
  3
WipeOut|AutoCAD Express Tool|expresstools@autodesk.com
 90
      127
280
     0
281
     1
  0
CLASS
  1
WIPEOUTVARIABLES
  2
AcDbWipeoutVariables
  3
WipeOut|AutoCAD Express Tool|expresstools@autodesk.com
 90
        0
280
     0
281
     0
  0
CLASS
  1
RTEXT
  2
RText
  3
RText|AutoCAD Express Tool|expresstools@autodesk.com
 90
        0
280
     0
281
     1
  0
CLASS
  1
ARCALIGNEDTEXT
  2
AcDbArcAlignedText
  3
ATEXT|AutoCAD Express Tool|expresstools@autodesk.com
 90
        0
280
     0
281
     1
  0
ENDSEC
  0
SECTION
  2
TABLES
  0
TABLE
  2
VPORT
  5
7
100
AcDbSymbolTable
 70
     1
  0
VPORT
  5
15
100
AcDbSymbolTableRecord
100
AcDbViewportTableRecord
  2
*ACTIVE
 70
     0
 10
0.0
 20
0.0
 11
1.0
 21
1.0
 12
-64.0
 22
-248.0
 13
0.0
 23
0.0
 14
1.0
 24
1.0
 15
0.0
 25
0.0
 16
0.0
 26
0.0
 36
1.0
 17
0.0
 27
0.0
 37
0.0
 40
2820.0
 41
0.688564
 42
50.0
 43
0.0
 44
0.0
 50
0.0
 51
0.0
 71
     0
 72
   100
 73
     1
 74
     1
 75
     0
 76
     0
 77
     0
 78
     0
281
     0
 65
     0
110
0.0
120
0.0
130
0.0
111
1.0
121
0.0
131
0.0
112
0.0
122
1.0
132
0.0
345
0
346
0
 79
     0
146
0.0
  0
ENDTAB
  0
TABLE
  2
LTYPE
  5
4
100
AcDbSymbolTable
 70
     7
  0
LTYPE
  5
11
100
AcDbSymbolTableRecord
100
AcDbLinetypeTableRecord
  2
ByBlock
 70
    64
  3

 72
    65
 73
     0
 40
0.0
  0
LTYPE
  5
12
100
AcDbSymbolTableRecord
100
AcDbLinetypeTableRecord
  2
ByLayer
 70
    64
  3

 72
    65
 73
     0
 40
0.0
  0
LTYPE
  5
13
100
AcDbSymbolTableRecord
100
AcDbLinetypeTableRecord
  2
Continuous
 70
    64
  3
Solid line
 72
    65
 73
     0
 40
0.0
  0
LTYPE
  5
24
100
AcDbSymbolTableRecord
100
AcDbLinetypeTableRecord
  2
DASHED
 70
    64
  3
Dashed __ __ __
 72
    65
 73
     2
 40
0.75
 49
0.5
 74
     0
 49
-0.25
 74
     0
  0
LTYPE
  5
25
100
AcDbSymbolTableRecord
100
AcDbLinetypeTableRecord
  2
DOT
 70
    64
  3
Dot . . . .
 72
    65
 73
     2
 40
0.25
 49
0.0
 74
     0
 49
-0.25
 74
     0
  0
LTYPE
  5
26
100
AcDbSymbolTableRecord
100
AcDbLinetypeTableRecord
  2
DASHDOT
 70
    64
  3
Dash dot __ . __ .
 72
    65
 73
     4
 40
1.0
 49
0.5
 74
     0
 49
-0.25
 74
     0
 49
0.0
 74
     0
 49
-0.25
 74
     0
  0
LTYPE
  5
27
100
AcDbSymbolTableRecord
100
AcDbLinetypeTableRecord
  2
DIVIDE
 70
    64
  3
Divide __ . . __ . .
 72
    65
 73
     6
 40
1.25
 49
0.5
 74
     0
 49
-0.25
 74
     0
 49
0.0
 74
     0
 49
-0.25
 74
     0
 49
0.0
 74
     0
 49
-0.25
 74
     0
  0
ENDTAB
  0
TABLE
  2
LAYER
  5
2
100
AcDbSymbolTable
 70
     2
  0
LAYER
  5
14
100
AcDbSymbolTableRecord
100
AcDbLayerTableRecord
  2
0
 70
     0
 62
     7
  6
Continuous
290
     1
370
    -3
390
1D
  0
LAYER
  5
29
100
AcDbSymbolTableRecord
100
AcDbLayerTableRecord
  2
LAYER22
 70
     0
 62
     7
  6
Continuous
290
     1
370
    -3
390
1D
  0
ENDTAB
  0
TABLE
  2
STYLE
  5
3
100
AcDbSymbolTable
 70
     1
  0
STYLE
  5
17
100
AcDbSymbolTableRecord
100
AcDbTextStyleTableRecord
  2
Standard
 70
     0
 40
0.0
 41
1.0
 50
0.0
 71
     0
 42
0.0
  3
txt
  4

  0
ENDTAB
  0
TABLE
  2
VIEW
  5
5
100
AcDbSymbolTable
 70
     0
  0
ENDTAB
  0
TABLE
  2
UCS
  5
6
100
AcDbSymbolTable
 70
     0
  0
ENDTAB
  0
TABLE
  2
APPID
  5
8
100
AcDbSymbolTable
 70
     1
  0
APPID
  5
16
100
AcDbSymbolTableRecord
100
AcDbRegAppTableRecord
  2
ACAD
 70
     0
  0
ENDTAB
  0
TABLE
  2
DIMSTYLE
  5
9
100
AcDbSymbolTable
 70
     1
100
AcDbDimStyleTable
 71
     0
  0
DIMSTYLE
105
18
100
AcDbSymbolTableRecord
100
AcDbDimStyleTableRecord
  2
Standard
 70
     0
  3

  4

 40
1.0
 41
0.18
 42
0.0625
 43
0.38
 44
0.18
 45
0.0
 46
0.0
 47
0.0
 48
0.0
 71
     0
 72
     0
 73
     1
 74
     1
 75
     0
 76
     0
 77
     0
 78
     0
 79
     0
140
0.18
141
0.09
142
0.0
143
25.4
144
1.0
145
0.0
146
1.0
147
0.09
148
0.0
170
     0
171
     2
172
     0
173
     0
174
     0
175
     0
176
     0
177
     0
178
     0
179
     0
271
     4
272
     4
273
     2
274
     2
275
     0
276
     0
277
     2
278
    46
279
     0
280
     0
281
     0
282
     0
283
     1
284
     0
285
     0
286
     0
288
     0
289
     3
340
17
341
0
342
0
343
0
344
0
371
    -2
372
    -2
  0
ENDTAB
  0
TABLE
  2
BLOCK_RECORD
  5
1
100
AcDbSymbolTable
 70
     0
  0
BLOCK_RECORD
  5
A
100
AcDbSymbolTableRecord
100
AcDbBlockTableRecord
  2
*MODEL_SPACE
340
20
  0
BLOCK_RECORD
  5
B
100
AcDbSymbolTableRecord
100
AcDbBlockTableRecord
  2
*PAPER_SPACE
340
21
  0
ENDTAB
  0
ENDSEC
  0
SECTION
  2
BLOCKS
  0
BLOCK
  5
D
100
AcDbEntity
  8
0
390
0
100
AcDbBlockBegin
  2
*MODEL_SPACE
 70
     0
 10
0.0
 20
0.0
 30
0.0
  3
*MODEL_SPACE
  1

  0
ENDBLK
  5
E
100
AcDbEntity
  8
0
390
0
100
AcDbBlockEnd
  0
BLOCK
  5
F
100
AcDbEntity
 67
     1
  8
0
390
0
100
AcDbBlockBegin
  2
*PAPER_SPACE
 70
     0
 10
0.0
 20
0.0
 30
0.0
  3
*PAPER_SPACE
  1

  0
ENDBLK
  5
10
100
AcDbEntity
 67
     1
  8
0
390
0
100
AcDbBlockEnd
  0
ENDSEC
  0
SECTION
  2
ENTITIES
  0
LWPOLYLINE
  5
28
100
AcDbEntity
  8
LAYER22
370
    18
390
0
  6
Continuous
 62
     1
100
AcDbPolyline
 90
        2
 70
     0
 10
-750.0
 20
-1468.589844
 10
621.0
 20
-1468.589844
  0
MTEXT
  5
2A
100
AcDbEntity
  8
LAYER22
390
0
 62
     2
100
AcDbMText
 10
-735.0
 20
1095.0
 30
0.0
 40
11.25
 41
0.0
 71
     7
 72
     1
  1
VISIO 1-PUNTS OPHANGING
 11
1.0
 21
0.0
 31
0.0
 73
     1
 44
1.333333
  0
LWPOLYLINE
  5
2B
100
AcDbEntity
  8
LAYER22
370
    25
390
0
  6
Continuous
 62
     2
100
AcDbPolyline
 90
        4
 70
     1
 10
-621.0
 20
908.410156
 10
-621.0
 20
-1448.589844
 10
-631.0
 20
-1448.589844
 10
-631.0
 20
908.410156
  0
LWPOLYLINE
  5
2C
100
AcDbEntity
  8
LAYER22
370
    25
390
0
  6
Continuous
 62
     2
100
AcDbPolyline
 90
        6
 70
     1
 10
-633.901367
 20
908.410156
 10
-633.901367
 20
808.331055
 10
-639.305664
 20
809.4375
 42
-0.092254
 10
-645.999878
 20
845.410156
 10
-646.0
 20
904.410156
 42
-0.414214
 10
-642.0
 20
908.410156
  0
LWPOLYLINE
  5
2D
100
AcDbEntity
  8
LAYER22
370
    25
390
0
  6
Continuous
 62
     2
100
AcDbPolyline
 90
        6
 70
     1
 10
-618.098633
 20
908.410156
 10
-618.098633
 20
808.331055
 10
-612.694336
 20
809.4375
 42
0.092254
 10
-606.000122
 20
845.410156
 10
-606.0
 20
904.410156
 42
0.414214
 10
-610.0
 20
908.410156
  0
LWPOLYLINE
  5
2E
100
AcDbEntity
  8
LAYER22
370
    18
390
0
  6
Continuous
 62
     1
100
AcDbPolyline
 90
        4
 70
     1
 10
-633.901367
 20
808.331055
 10
-633.901367
 20
908.410156
 10
-618.098633
 20
908.410156
 10
-618.098633
 20
808.331055
  0
LWPOLYLINE
  5
2F
100
AcDbEntity
  8
LAYER22
370
    25
390
0
  6
Continuous
 62
     2
100
AcDbPolyline
 90
        4
 70
     1
 10
-616.564453
 20
908.410156
 10
-613.47168
 20
921.708984
 10
-611.540039
 20
921.191406
 10
-615.425781
 20
908.410156
  0
LWPOLYLINE
  5
30
100
AcDbEntity
  8
LAYER22
370
    25
390
0
  6
Continuous
 62
     2
100
AcDbPolyline
 90
        4
 70
     1
 10
-635.435547
 20
908.410156
 10
-638.52832
 20
921.708984
 10
-640.459961
 20
921.191406
 10
-636.574219
 20
908.410156
  0
LWPOLYLINE
  5
31
100
AcDbEntity
  8
LAYER22
370
    25
390
0
  6
Continuous
 62
     2
100
AcDbPolyline
 90
        6
 70
     1
 10
-618.098633
 20
-1448.589844
 10
-618.098633
 20
-1348.510742
 10
-612.694336
 20
-1349.617188
 42
-0.092254
 10
-606.000122
 20
-1385.589844
 10
-606.0
 20
-1444.589844
 42
-0.414214
 10
-610.0
 20
-1448.589844
  0
LWPOLYLINE
  5
32
100
AcDbEntity
  8
LAYER22
370
    25
390
0
  6
Continuous
 62
     2
100
AcDbPolyline
 90
        6
 70
     1
 10
-633.901367
 20
-1448.589844
 10
-633.901367
 20
-1348.510742
 10
-639.305664
 20
-1349.617188
 42
0.092254
 10
-645.999878
 20
-1385.589844
 10
-646.0
 20
-1444.589844
 42
0.414214
 10
-642.0
 20
-1448.589844
  0
LWPOLYLINE
  5
33
100
AcDbEntity
  8
LAYER22
370
    18
390
0
  6
Continuous
 62
     1
100
AcDbPolyline
 90
        4
 70
     1
 10
-618.098633
 20
-1348.510742
 10
-618.098633
 20
-1448.589844
 10
-633.901367
 20
-1448.589844
 10
-633.901367
 20
-1348.510742
  0
LWPOLYLINE
  5
34
100
AcDbEntity
  8
LAYER22
370
    25
390
0
  6
Continuous
 62
     2
100
AcDbPolyline
 90
        4
 70
     1
 10
-635.435547
 20
-1448.589844
 10
-638.52832
 20
-1461.888672
 10
-640.459961
 20
-1461.371094
 10
-636.574219
 20
-1448.589844
  0
LWPOLYLINE
  5
35
100
AcDbEntity
  8
LAYER22
370
    25
390
0
  6
Continuous
 62
     2
100
AcDbPolyline
 90
        4
 70
     1
 10
-616.564453
 20
-1448.589844
 10
-613.47168
 20
-1461.888672
 10
-611.540039
 20
-1461.371094
 10
-615.425781
 20
-1448.589844
  0
LWPOLYLINE
  5
36
100
AcDbEntity
  8
LAYER22
370
    25
390
0
  6
Continuous
 62
     2
100
AcDbPolyline
 90
       69
 70
     0
 10
-626.0
 20
979.910156
 10
-614.463867
 20
979.910156
 10
-612.835938
 20
979.110352
 10
-606.220703
 20
979.110352
 10
-603.506836
 20
981.824219
 10
-603.506836
 20
1000.171875
 10
-607.294922
 20
1009.910156
 10
-615.006836
 20
1009.910156
 10
-616.006836
 20
1011.136719
 10
-613.975586
 20
1014.410156
 10
-612.006836
 20
1014.410156
 42
0.414214
 10
-610.006836
 20
1016.410156
 10
-610.006836
 20
1020.410156
 42
0.414214
 10
-612.006836
 20
1022.410156
 10
-618.006836
 20
1022.410156
 10
-618.506836
 20
1022.910156
 10
-618.506836
 20
1025.910156
 10
-618.006836
 20
1026.410156
 10
-606.506836
 20
1026.410156
 10
-605.506836
 20
1025.410156
 10
-605.506836
 20
1016.339844
 10
-601.021484
 20
1005.912598
 10
-600.5625
 20
1005.610352
 10
-590.90332
 20
1005.610352
 10
-590.40332
 20
1006.110352
 10
-590.40332
 20
1013.209961
 42
-1.0
 10
-588.00293
 20
1013.209961
 10
-588.00293
 20
995.610352
 42
-1.0
 10
-590.40332
 20
995.610352
 10
-590.40332
 20
1002.709961
 10
-590.90332
 20
1003.209961
 10
-600.506836
 20
1003.209961
 10
-601.006836
 20
1002.709961
 10
-601.006836
 20
971.209961
 10
-600.506836
 20
970.709961
 10
-590.90332
 20
970.709961
 10
-590.40332
 20
971.209961
 10
-590.40332
 20
978.709961
 42
-1.0
 10
-588.00293
 20
978.709961
 10
-588.00293
 20
969.310547
 42
-0.414214
 10
-589.00293
 20
968.310547
 10
-600.506836
 20
968.310547
 10
-601.006836
 20
967.810547
 10
-601.006836
 20
942.910156
 42
0.167239
 10
-598.466064
 20
935.526184
 10
-598.80957
 20
934.900391
 42
2.796031
 10
-597.016479
 20
933.106445
 10
-596.390625
 20
933.451172
 42
0.167241
 10
-589.006836
 20
930.910461
 10
-573.393555
 20
930.910156
 10
-573.393555
 20
944.209961
 42
-1.0
 10
-570.993164
 20
944.209961
 10
-570.993164
 20
929.410156
 42
-0.414214
 10
-571.993164
 20
928.410156
 10
-614.15625
 20
928.410156
 42
-0.414214
 10
-615.15625
 20
929.410156
 10
-615.15625
 20
932.410156
 10
-613.771484
 20
931.610352
 10
-606.692383
 20
931.610352
 10
-605.256836
 20
932.439453
 10
-605.256836
 20
935.410156
 10
-603.756836
 20
938.008301
 10
-603.756836
 20
962.8125
 42
0.180063
 10
-606.286194
 20
970.80365
 10
-605.953125
 20
971.419922
 42
2.795936
 10
-607.74707
 20
973.213867
 10
-608.37207
 20
972.869141
 42
0.167011
 10
-615.756836
 20
975.401428
 10
-626.009766
 20
975.401367
  0
LWPOLYLINE
  5
37
100
AcDbEntity
  8
LAYER22
370
    25
390
0
  6
Continuous
 62
     2
100
AcDbPolyline
 90
       69
 70
     0
 10
-626.0
 20
979.910156
 10
-637.536133
 20
979.910156
 10
-639.164063
 20
979.110352
 10
-645.779297
 20
979.110352
 10
-648.493164
 20
981.824219
 10
-648.493164
 20
1000.171875
 10
-644.705078
 20
1009.910156
 10
-636.993164
 20
1009.910156
 10
-635.993164
 20
1011.136719
 10
-638.024414
 20
1014.410156
 10
-639.993164
 20
1014.410156
 42
-0.414214
 10
-641.993164
 20
1016.410156
 10
-641.993164
 20
1020.410156
 42
-0.414214
 10
-639.993164
 20
1022.410156
 10
-633.993164
 20
1022.410156
 10
-633.493164
 20
1022.910156
 10
-633.493164
 20
1025.910156
 10
-633.993164
 20
1026.410156
 10
-645.493164
 20
1026.410156
 10
-646.493164
 20
1025.410156
 10
-646.493164
 20
1016.339844
 10
-650.978516
 20
1005.912598
 10
-651.4375
 20
1005.610352
 10
-661.09668
 20
1005.610352
 10
-661.59668
 20
1006.110352
 10
-661.59668
 20
1013.209961
 42
1.0
 10
-663.99707
 20
1013.209961
 10
-663.99707
 20
995.610352
 42
1.0
 10
-661.59668
 20
995.610352
 10
-661.59668
 20
1002.709961
 10
-661.09668
 20
1003.209961
 10
-651.493164
 20
1003.209961
 10
-650.993164
 20
1002.709961
 10
-650.993164
 20
971.209961
 10
-651.493164
 20
970.709961
 10
-661.09668
 20
970.709961
 10
-661.59668
 20
971.209961
 10
-661.59668
 20
978.709961
 42
1.0
 10
-663.99707
 20
978.709961
 10
-663.99707
 20
969.310547
 42
0.414214
 10
-662.99707
 20
968.310547
 10
-651.493164
 20
968.310547
 10
-650.993164
 20
967.810547
 10
-650.993164
 20
942.910156
 42
-0.167239
 10
-653.533936
 20
935.526184
 10
-653.19043
 20
934.900391
 42
-2.796031
 10
-654.983521
 20
933.106445
 10
-655.609375
 20
933.451172
 42
-0.167241
 10
-662.993164
 20
930.910461
 10
-678.606445
 20
930.910156
 10
-678.606445
 20
944.209961
 42
1.0
 10
-681.006836
 20
944.209961
 10
-681.006836
 20
929.410156
 42
0.414214
 10
-680.006836
 20
928.410156
 10
-637.84375
 20
928.410156
 42
0.414214
 10
-636.84375
 20
929.410156
 10
-636.84375
 20
932.410156
 10
-638.228516
 20
931.610352
 10
-645.307617
 20
931.610352
 10
-646.743164
 20
932.439453
 10
-646.743164
 20
935.410156
 10
-648.243164
 20
938.008301
 10
-648.243164
 20
962.8125
 42
-0.180063
 10
-645.713806
 20
970.80365
 10
-646.046875
 20
971.419922
 42
-2.795936
 10
-644.25293
 20
973.213867
 10
-643.62793
 20
972.869141
 42
-0.167011
 10
-636.243164
 20
975.401428
 10
-625.990234
 20
975.401367
  0
LWPOLYLINE
  5
38
100
AcDbEntity
  8
LAYER22
370
    13
390
0
  6
DASHDOT
 62
     5
100
AcDbPolyline
 90
        2
 70
     0
 10
-626.0
 20
847.444336
 10
-626.0
 20
1041.441406
  0
LWPOLYLINE
  5
39
100
AcDbEntity
  8
LAYER22
370
    18
390
0
  6
Continuous
 62
     1
100
AcDbPolyline
 90
        8
 70
     1
 10
-644.818359
 20
932.610352
 10
-646.318359
 20
934.110352
 10
-646.318359
 20
966.110352
 10
-644.818359
 20
967.610352
 10
-639.21875
 20
967.610352
 10
-637.71875
 20
966.110352
 10
-637.71875
 20
934.110352
 10
-639.21875
 20
932.610352
  0
LWPOLYLINE
  5
3A
100
AcDbEntity
  8
LAYER22
370
    18
390
0
  6
Continuous
 62
     1
100
AcDbPolyline
 90
        4
 70
     1
 10
-636.768555
 20
958.110352
 10
-615.768555
 20
958.110352
 10
-615.768555
 20
942.110352
 10
-636.768555
 20
942.110352
  0
LWPOLYLINE
  5
3B
100
AcDbEntity
  8
LAYER22
370
    18
390
0
  6
Continuous
 62
     1
100
AcDbPolyline
 90
        4
 70
     1
 10
-637.71875
 20
956.110352
 10
-636.768555
 20
956.110352
 10
-636.768555
 20
944.110352
 10
-637.71875
 20
944.110352
  0
CIRCLE
  5
3C
100
AcDbEntity
  8
LAYER22
390
0
  6
Continuous
 62
     1
100
AcDbCircle
 10
-626.268555
 20
950.110352
 30
0.0
 40
4.700195
  0
LWPOLYLINE
  5
3D
100
AcDbEntity
  8
LAYER22
370
    18
390
0
  6
Continuous
 62
     1
100
AcDbPolyline
 90
        4
 70
     1
 10
-616.768555
 20
942.110352
 10
-616.768555
 20
940.610352
 10
-635.768555
 20
940.610352
 10
-635.768555
 20
942.110352
  0
LWPOLYLINE
  5
3E
100
AcDbEntity
  8
LAYER22
370
    18
390
0
  6
Continuous
 62
     1
100
AcDbPolyline
 90
        4
 70
     1
 10
-620.268555
 20
940.610352
 10
-620.268555
 20
919.610352
 10
-632.268555
 20
919.610352
 10
-632.268555
 20
940.610352
  0
LWPOLYLINE
  5
3F
100
AcDbEntity
  8
LAYER22
370
    18
390
0
  6
Continuous
 62
     1
100
AcDbPolyline
 90
        4
 70
     1
 10
-634.268555
 20
919.610352
 10
-618.268555
 20
919.610352
 10
-618.268555
 20
912.610352
 10
-634.268555
 20
912.610352
  0
LWPOLYLINE
  5
40
100
AcDbEntity
  8
LAYER22
370
    18
390
0
  6
Continuous
 62
     1
100
AcDbPolyline
 90
        6
 70
     0
 10
-620.268555
 20
912.610352
 10
-620.268555
 20
886.410156
 10
-621.068359
 20
885.610352
 10
-631.46875
 20
885.610352
 10
-632.268555
 20
886.410156
 10
-632.268555
 20
912.610352
  0
LWPOLYLINE
  5
41
100
AcDbEntity
  8
LAYER22
370
    18
390
0
  6
Continuous
 62
     1
100
AcDbPolyline
 90
        2
 70
     0
 10
-630.268555
 20
919.610352
 10
-630.268555
 20
912.610352
  0
LWPOLYLINE
  5
42
100
AcDbEntity
  8
LAYER22
370
    18
390
0
  6
Continuous
 62
     1
100
AcDbPolyline
 90
        2
 70
     0
 10
-622.268555
 20
919.610352
 10
-622.268555
 20
912.610352
  0
LWPOLYLINE
  5
43
100
AcDbEntity
  8
LAYER22
370
    18
390
0
  6
Continuous
 62
     1
100
AcDbPolyline
 90
        4
 70
     1
 10
-635.768555
 20
958.110352
 10
-635.768555
 20
959.610352
 10
-616.768555
 20
959.610352
 10
-616.768555
 20
958.110352
  0
LWPOLYLINE
  5
44
100
AcDbEntity
  8
LAYER22
370
    18
390
0
  6
Continuous
 62
     1
100
AcDbPolyline
 90
        4
 70
     1
 10
-636.268555
 20
959.610352
 10
-636.268555
 20
961.610352
 10
-616.268555
 20
961.610352
 10
-616.268555
 20
959.610352
  0
LWPOLYLINE
  5
45
100
AcDbEntity
  8
LAYER22
370
    18
390
0
  6
Continuous
 62
     1
100
AcDbPolyline
 90
        6
 70
     0
 10
-635.46875
 20
961.610352
 10
-635.46875
 20
964.610352
 10
-629.768555
 20
969.110352
 10
-622.768555
 20
969.110352
 10
-617.068359
 20
964.610352
 10
-617.068359
 20
961.610352
  0
LWPOLYLINE
  5
46
100
AcDbEntity
  8
LAYER22
370
    18
390
0
  6
Continuous
 62
     1
100
AcDbPolyline
 90
        8
 70
     1
 10
-613.318359
 20
932.610352
 10
-614.818359
 20
934.110352
 10
-614.818359
 20
966.110352
 10
-613.318359
 20
967.610352
 10
-607.71875
 20
967.610352
 10
-606.21875
 20
966.110352
 10
-606.21875
 20
934.110352
 10
-607.71875
 20
932.610352
  0
LWPOLYLINE
  5
47
100
AcDbEntity
  8
LAYER22
370
    25
390
0
  6
Continuous
 62
     2
100
AcDbPolyline
 90
        4
 70
     1
 10
-480.195313
 20
-1576.572266
 10
515.804688
 20
-1576.572266
 10
515.804688
 20
-1586.572266
 10
-480.195313
 20
-1586.572266
  0
LWPOLYLINE
  5
48
100
AcDbEntity
  8
LAYER22
370
    18
390
0
  6
Continuous
 62
     1
100
AcDbPolyline
 90
        4
 70
     1
 10
-476.195313
 20
-1561.572266
 10
511.804688
 20
-1561.572266
 10
511.804688
 20
-1601.572266
 10
-476.195313
 20
-1601.572266
  0
LWPOLYLINE
  5
49
100
AcDbEntity
  8
LAYER22
370
    18
390
0
  6
Continuous
 62
     1
100
AcDbPolyline
 90
        6
 70
     1
 10
-476.195313
 20
-1601.550781
 10
-479.155273
 20
-1601.550781
 10
-482.195313
 20
-1589.392578
 10
-482.195313
 20
-1573.708984
 10
-479.160156
 20
-1561.572266
 10
-476.195313
 20
-1561.572266
  0
LWPOLYLINE
  5
4A
100
AcDbEntity
  8
LAYER22
370
    18
390
0
  6
Continuous
 62
     1
100
AcDbPolyline
 90
        6
 70
     1
 10
511.804688
 20
-1601.550781
 10
514.764648
 20
-1601.5625
 10
517.804688
 20
-1589.404297
 10
517.804688
 20
-1573.71875
 10
514.769531
 20
-1561.583984
 10
511.804688
 20
-1561.572266
  0
LWPOLYLINE
  5
4B
100
AcDbEntity
  8
LAYER22
370
    18
390
0
  6
Continuous
 62
     1
100
AcDbPolyline
 90
        4
 70
     1
 10
-478.195313
 20
808.410156
 10
-478.195313
 20
908.410156
 10
515.804688
 20
908.410156
 10
515.804688
 20
808.410156
  0
LWPOLYLINE
  5
4C
100
AcDbEntity
  8
LAYER22
370
    18
390
0
  6
Continuous
 62
     1
100
AcDbPolyline
 90
        4
 70
     1
 10
-482.195313
 20
-1448.589844
 10
-482.195313
 20
-1348.589844
 10
519.804688
 20
-1348.589844
 10
519.804688
 20
-1448.589844
  0
LWPOLYLINE
  5
4D
100
AcDbEntity
  8
LAYER22
370
    18
390
0
  6
Continuous
 62
     1
100
AcDbPolyline
 90
        4
 70
     1
 10
-476.195313
 20
-1348.589844
 10
-476.195313
 20
808.410156
 10
513.804688
 20
808.410156
 10
513.804688
 20
-1348.589844
  0
LWPOLYLINE
  5
4E
100
AcDbEntity
  8
LAYER22
370
    18
390
0
  6
Continuous
 62
     1
100
AcDbPolyline
 90
        4
 70
     1
 10
-478.195313
 20
928.410156
 10
-478.195313
 20
931.410156
 10
515.804688
 20
931.410156
 10
515.804688
 20
928.410156
  0
LWPOLYLINE
  5
4F
100
AcDbEntity
  8
LAYER22
370
    18
390
0
  6
DASHED
 62
     1
100
AcDbPolyline
 90
        2
 70
     0
 10
-478.195313
 20
1026.410156
 10
515.804688
 20
1026.410156
  0
LWPOLYLINE
  5
50
100
AcDbEntity
  8
LAYER22
370
    18
390
0
  6
Continuous
 62
     1
100
AcDbPolyline
 90
        4
 70
     1
 10
-476.195313
 20
-1468.589844
 10
-476.195313
 20
-1448.589844
 10
515.804688
 20
-1448.589844
 10
515.804688
 20
-1468.589844
  0
LWPOLYLINE
  5
51
100
AcDbEntity
  8
LAYER22
370
    18
390
0
  6
Continuous
 62
     1
100
AcDbPolyline
 90
        2
 70
     0
 10
-471.195313
 20
-1468.589844
 10
-471.195313
 20
-1448.589844
  0
LWPOLYLINE
  5
52
100
AcDbEntity
  8
LAYER22
370
    18
390
0
  6
Continuous
 62
     1
100
AcDbPolyline
 90
        2
 70
     0
 10
-466.195313
 20
-1468.589844
 10
-466.195313
 20
-1448.589844
  0
LWPOLYLINE
  5
53
100
AcDbEntity
  8
LAYER22
370
    18
390
0
  6
Continuous
 62
     1
100
AcDbPolyline
 90
        2
 70
     0
 10
-461.195313
 20
-1468.589844
 10
-461.195313
 20
-1448.589844
  0
LWPOLYLINE
  5
54
100
AcDbEntity
  8
LAYER22
370
    18
390
0
  6
Continuous
 62
     1
100
AcDbPolyline
 90
        2
 70
     0
 10
-456.195313
 20
-1468.589844
 10
-456.195313
 20
-1448.589844
  0
LWPOLYLINE
  5
55
100
AcDbEntity
  8
LAYER22
370
    18
390
0
  6
Continuous
 62
     1
100
AcDbPolyline
 90
        2
 70
     0
 10
-451.195313
 20
-1468.589844
 10
-451.195313
 20
-1448.589844
  0
LWPOLYLINE
  5
56
100
AcDbEntity
  8
LAYER22
370
    18
390
0
  6
Continuous
 62
     1
100
AcDbPolyline
 90
        2
 70
     0
 10
-446.195313
 20
-1468.589844
 10
-446.195313
 20
-1448.589844
  0
LWPOLYLINE
  5
57
100
AcDbEntity
  8
LAYER22
370
    18
390
0
  6
Continuous
 62
     1
100
AcDbPolyline
 90
        2
 70
     0
 10
-441.195313
 20
-1468.589844
 10
-441.195313
 20
-1448.589844
  0
LWPOLYLINE
  5
58
100
AcDbEntity
  8
LAYER22
370
    18
390
0
  6
Continuous
 62
     1
100
AcDbPolyline
 90
        2
 70
     0
 10
-436.195313
 20
-1468.589844
 10
-436.195313
 20
-1448.589844
  0
LWPOLYLINE
  5
59
100
AcDbEntity
  8
LAYER22
370
    18
390
0
  6
Continuous
 62
     1
100
AcDbPolyline
 90
        2
 70
     0
 10
-431.195313
 20
-1468.589844
 10
-431.195313
 20
-1448.589844
  0
LWPOLYLINE
  5
5A
100
AcDbEntity
  8
LAYER22
370
    18
390
0
  6
Continuous
 62
     1
100
AcDbPolyline
 90
        2
 70
     0
 10
-426.195313
 20
-1468.589844
 10
-426.195313
 20
-1448.589844
  0
LWPOLYLINE
  5
5B
100
AcDbEntity
  8
LAYER22
370
    18
390
0
  6
Continuous
 62
     1
100
AcDbPolyline
 90
        2
 70
     0
 10
-421.195313
 20
-1468.589844
 10
-421.195313
 20
-1448.589844
  0
LWPOLYLINE
  5
5C
100
AcDbEntity
  8
LAYER22
370
    18
390
0
  6
Continuous
 62
     1
100
AcDbPolyline
 90
        2
 70
     0
 10
-416.195313
 20
-1468.589844
 10
-416.195313
 20
-1448.589844
  0
LWPOLYLINE
  5
5D
100
AcDbEntity
  8
LAYER22
370
    18
390
0
  6
Continuous
 62
     1
100
AcDbPolyline
 90
        2
 70
     0
 10
-411.195313
 20
-1468.589844
 10
-411.195313
 20
-1448.589844
  0
LWPOLYLINE
  5
5E
100
AcDbEntity
  8
LAYER22
370
    18
390
0
  6
Continuous
 62
     1
100
AcDbPolyline
 90
        2
 70
     0
 10
-406.195313
 20
-1468.589844
 10
-406.195313
 20
-1448.589844
  0
LWPOLYLINE
  5
5F
100
AcDbEntity
  8
LAYER22
370
    18
390
0
  6
Continuous
 62
     1
100
AcDbPolyline
 90
        2
 70
     0
 10
-401.195313
 20
-1468.589844
 10
-401.195313
 20
-1448.589844
  0
LWPOLYLINE
  5
60
100
AcDbEntity
  8
LAYER22
370
    18
390
0
  6
Continuous
 62
     1
100
AcDbPolyline
 90
        2
 70
     0
 10
-396.195313
 20
-1468.589844
 10
-396.195313
 20
-1448.589844
  0
LWPOLYLINE
  5
61
100
AcDbEntity
  8
LAYER22
370
    18
390
0
  6
Continuous
 62
     1
100
AcDbPolyline
 90
        2
 70
     0
 10
-391.195313
 20
-1468.589844
 10
-391.195313
 20
-1448.589844
  0
LWPOLYLINE
  5
62
100
AcDbEntity
  8
LAYER22
370
    18
390
0
  6
Continuous
 62
     1
100
AcDbPolyline
 90
        2
 70
     0
 10
-386.195313
 20
-1468.589844
 10
-386.195313
 20
-1448.589844
  0
LWPOLYLINE
  5
63
100
AcDbEntity
  8
LAYER22
370
    18
390
0
  6
Continuous
 62
     1
100
AcDbPolyline
 90
        2
 70
     0
 10
-381.195313
 20
-1468.589844
 10
-381.195313
 20
-1448.589844
  0
LWPOLYLINE
  5
64
100
AcDbEntity
  8
LAYER22
370
    18
390
0
  6
Continuous
 62
     1
100
AcDbPolyline
 90
        2
 70
     0
 10
-376.195313
 20
-1468.589844
 10
-376.195313
 20
-1448.589844
  0
LWPOLYLINE
  5
65
100
AcDbEntity
  8
LAYER22
370
    18
390
0
  6
Continuous
 62
     1
100
AcDbPolyline
 90
        2
 70
     0
 10
-371.195313
 20
-1468.589844
 10
-371.195313
 20
-1448.589844
  0
LWPOLYLINE
  5
66
100
AcDbEntity
  8
LAYER22
370
    18
390
0
  6
Continuous
 62
     1
100
AcDbPolyline
 90
        2
 70
     0
 10
-366.195313
 20
-1468.589844
 10
-366.195313
 20
-1448.589844
  0
LWPOLYLINE
  5
67
100
AcDbEntity
  8
LAYER22
370
    18
390
0
  6
Continuous
 62
     1
100
AcDbPolyline
 90
        2
 70
     0
 10
-361.195313
 20
-1468.589844
 10
-361.195313
 20
-1448.589844
  0
LWPOLYLINE
  5
68
100
AcDbEntity
  8
LAYER22
370
    18
390
0
  6
Continuous
 62
     1
100
AcDbPolyline
 90
        2
 70
     0
 10
-356.195313
 20
-1468.589844
 10
-356.195313
 20
-1448.589844
  0
LWPOLYLINE
  5
69
100
AcDbEntity
  8
LAYER22
370
    18
390
0
  6
Continuous
 62
     1
100
AcDbPolyline
 90
        2
 70
     0
 10
-351.195313
 20
-1468.589844
 10
-351.195313
 20
-1448.589844
  0
LWPOLYLINE
  5
6A
100
AcDbEntity
  8
LAYER22
370
    18
390
0
  6
Continuous
 62
     1
100
AcDbPolyline
 90
        2
 70
     0
 10
-346.195313
 20
-1468.589844
 10
-346.195313
 20
-1448.589844
  0
LWPOLYLINE
  5
6B
100
AcDbEntity
  8
LAYER22
370
    18
390
0
  6
Continuous
 62
     1
100
AcDbPolyline
 90
        2
 70
     0
 10
-341.195313
 20
-1468.589844
 10
-341.195313
 20
-1448.589844
  0
LWPOLYLINE
  5
6C
100
AcDbEntity
  8
LAYER22
370
    18
390
0
  6
Continuous
 62
     1
100
AcDbPolyline
 90
        2
 70
     0
 10
-336.195313
 20
-1468.589844
 10
-336.195313
 20
-1448.589844
  0
LWPOLYLINE
  5
6D
100
AcDbEntity
  8
LAYER22
370
    18
390
0
  6
Continuous
 62
     1
100
AcDbPolyline
 90
        2
 70
     0
 10
-331.195313
 20
-1468.589844
 10
-331.195313
 20
-1448.589844
  0
LWPOLYLINE
  5
6E
100
AcDbEntity
  8
LAYER22
370
    18
390
0
  6
Continuous
 62
     1
100
AcDbPolyline
 90
        2
 70
     0
 10
-326.195313
 20
-1468.589844
 10
-326.195313
 20
-1448.589844
  0
LWPOLYLINE
  5
6F
100
AcDbEntity
  8
LAYER22
370
    18
390
0
  6
Continuous
 62
     1
100
AcDbPolyline
 90
        2
 70
     0
 10
-321.195313
 20
-1468.589844
 10
-321.195313
 20
-1448.589844
  0
LWPOLYLINE
  5
70
100
AcDbEntity
  8
LAYER22
370
    18
390
0
  6
Continuous
 62
     1
100
AcDbPolyline
 90
        2
 70
     0
 10
-316.195313
 20
-1468.589844
 10
-316.195313
 20
-1448.589844
  0
LWPOLYLINE
  5
71
100
AcDbEntity
  8
LAYER22
370
    18
390
0
  6
Continuous
 62
     1
100
AcDbPolyline
 90
        2
 70
     0
 10
-311.195313
 20
-1468.589844
 10
-311.195313
 20
-1448.589844
  0
LWPOLYLINE
  5
72
100
AcDbEntity
  8
LAYER22
370
    18
390
0
  6
Continuous
 62
     1
100
AcDbPolyline
 90
        2
 70
     0
 10
-306.195313
 20
-1468.589844
 10
-306.195313
 20
-1448.589844
  0
LWPOLYLINE
  5
73
100
AcDbEntity
  8
LAYER22
370
    18
390
0
  6
Continuous
 62
     1
100
AcDbPolyline
 90
        2
 70
     0
 10
-301.195313
 20
-1468.589844
 10
-301.195313
 20
-1448.589844
  0
LWPOLYLINE
  5
74
100
AcDbEntity
  8
LAYER22
370
    18
390
0
  6
Continuous
 62
     1
100
AcDbPolyline
 90
        2
 70
     0
 10
-296.195313
 20
-1468.589844
 10
-296.195313
 20
-1448.589844
  0
LWPOLYLINE
  5
75
100
AcDbEntity
  8
LAYER22
370
    18
390
0
  6
Continuous
 62
     1
100
AcDbPolyline
 90
        2
 70
     0
 10
-291.195313
 20
-1468.589844
 10
-291.195313
 20
-1448.589844
  0
LWPOLYLINE
  5
76
100
AcDbEntity
  8
LAYER22
370
    18
390
0
  6
Continuous
 62
     1
100
AcDbPolyline
 90
        2
 70
     0
 10
-286.195313
 20
-1468.589844
 10
-286.195313
 20
-1448.589844
  0
LWPOLYLINE
  5
77
100
AcDbEntity
  8
LAYER22
370
    18
390
0
  6
Continuous
 62
     1
100
AcDbPolyline
 90
        2
 70
     0
 10
-281.195313
 20
-1468.589844
 10
-281.195313
 20
-1448.589844
  0
LWPOLYLINE
  5
78
100
AcDbEntity
  8
LAYER22
370
    18
390
0
  6
Continuous
 62
     1
100
AcDbPolyline
 90
        2
 70
     0
 10
-276.195313
 20
-1468.589844
 10
-276.195313
 20
-1448.589844
  0
LWPOLYLINE
  5
79
100
AcDbEntity
  8
LAYER22
370
    18
390
0
  6
Continuous
 62
     1
100
AcDbPolyline
 90
        2
 70
     0
 10
-271.195313
 20
-1468.589844
 10
-271.195313
 20
-1448.589844
  0
LWPOLYLINE
  5
7A
100
AcDbEntity
  8
LAYER22
370
    18
390
0
  6
Continuous
 62
     1
100
AcDbPolyline
 90
        2
 70
     0
 10
-266.195313
 20
-1468.589844
 10
-266.195313
 20
-1448.589844
  0
LWPOLYLINE
  5
7B
100
AcDbEntity
  8
LAYER22
370
    18
390
0
  6
Continuous
 62
     1
100
AcDbPolyline
 90
        2
 70
     0
 10
-261.195313
 20
-1468.589844
 10
-261.195313
 20
-1448.589844
  0
LWPOLYLINE
  5
7C
100
AcDbEntity
  8
LAYER22
370
    18
390
0
  6
Continuous
 62
     1
100
AcDbPolyline
 90
        2
 70
     0
 10
-256.195313
 20
-1468.589844
 10
-256.195313
 20
-1448.589844
  0
LWPOLYLINE
  5
7D
100
AcDbEntity
  8
LAYER22
370
    18
390
0
  6
Continuous
 62
     1
100
AcDbPolyline
 90
        2
 70
     0
 10
-251.195313
 20
-1468.589844
 10
-251.195313
 20
-1448.589844
  0
LWPOLYLINE
  5
7E
100
AcDbEntity
  8
LAYER22
370
    18
390
0
  6
Continuous
 62
     1
100
AcDbPolyline
 90
        2
 70
     0
 10
-246.195313
 20
-1468.589844
 10
-246.195313
 20
-1448.589844
  0
LWPOLYLINE
  5
7F
100
AcDbEntity
  8
LAYER22
370
    18
390
0
  6
Continuous
 62
     1
100
AcDbPolyline
 90
        2
 70
     0
 10
-241.195313
 20
-1468.589844
 10
-241.195313
 20
-1448.589844
  0
LWPOLYLINE
  5
80
100
AcDbEntity
  8
LAYER22
370
    18
390
0
  6
Continuous
 62
     1
100
AcDbPolyline
 90
        2
 70
     0
 10
-236.195313
 20
-1468.589844
 10
-236.195313
 20
-1448.589844
  0
LWPOLYLINE
  5
81
100
AcDbEntity
  8
LAYER22
370
    18
390
0
  6
Continuous
 62
     1
100
AcDbPolyline
 90
        2
 70
     0
 10
-231.195313
 20
-1468.589844
 10
-231.195313
 20
-1448.589844
  0
LWPOLYLINE
  5
82
100
AcDbEntity
  8
LAYER22
370
    18
390
0
  6
Continuous
 62
     1
100
AcDbPolyline
 90
        2
 70
     0
 10
-226.195313
 20
-1468.589844
 10
-226.195313
 20
-1448.589844
  0
LWPOLYLINE
  5
83
100
AcDbEntity
  8
LAYER22
370
    18
390
0
  6
Continuous
 62
     1
100
AcDbPolyline
 90
        2
 70
     0
 10
-222.195313
 20
-1468.589844
 10
-222.195313
 20
-1448.589844
  0
LWPOLYLINE
  5
84
100
AcDbEntity
  8
LAYER22
370
    18
390
0
  6
Continuous
 62
     1
100
AcDbPolyline
 90
        2
 70
     0
 10
-216.195313
 20
-1468.589844
 10
-216.195313
 20
-1448.589844
  0
LWPOLYLINE
  5
85
100
AcDbEntity
  8
LAYER22
370
    18
390
0
  6
Continuous
 62
     1
100
AcDbPolyline
 90
        2
 70
     0
 10
-212.195313
 20
-1468.589844
 10
-212.195313
 20
-1448.589844
  0
LWPOLYLINE
  5
86
100
AcDbEntity
  8
LAYER22
370
    18
390
0
  6
Continuous
 62
     1
100
AcDbPolyline
 90
        2
 70
     0
 10
-206.195313
 20
-1468.589844
 10
-206.195313
 20
-1448.589844
  0
LWPOLYLINE
  5
87
100
AcDbEntity
  8
LAYER22
370
    18
390
0
  6
Continuous
 62
     1
100
AcDbPolyline
 90
        2
 70
     0
 10
-202.195313
 20
-1468.589844
 10
-202.195313
 20
-1448.589844
  0
LWPOLYLINE
  5
88
100
AcDbEntity
  8
LAYER22
370
    18
390
0
  6
Continuous
 62
     1
100
AcDbPolyline
 90
        2
 70
     0
 10
-196.195313
 20
-1468.589844
 10
-196.195313
 20
-1448.589844
  0
LWPOLYLINE
  5
89
100
AcDbEntity
  8
LAYER22
370
    18
390
0
  6
Continuous
 62
     1
100
AcDbPolyline
 90
        2
 70
     0
 10
-192.195313
 20
-1468.589844
 10
-192.195313
 20
-1448.589844
  0
LWPOLYLINE
  5
8A
100
AcDbEntity
  8
LAYER22
370
    18
390
0
  6
Continuous
 62
     1
100
AcDbPolyline
 90
        2
 70
     0
 10
-186.195313
 20
-1468.589844
 10
-186.195313
 20
-1448.589844
  0
LWPOLYLINE
  5
8B
100
AcDbEntity
  8
LAYER22
370
    18
390
0
  6
Continuous
 62
     1
100
AcDbPolyline
 90
        2
 70
     0
 10
-182.195313
 20
-1468.589844
 10
-182.195313
 20
-1448.589844
  0
LWPOLYLINE
  5
8C
100
AcDbEntity
  8
LAYER22
370
    18
390
0
  6
Continuous
 62
     1
100
AcDbPolyline
 90
        2
 70
     0
 10
-176.195313
 20
-1468.589844
 10
-176.195313
 20
-1448.589844
  0
LWPOLYLINE
  5
8D
100
AcDbEntity
  8
LAYER22
370
    18
390
0
  6
Continuous
 62
     1
100
AcDbPolyline
 90
        2
 70
     0
 10
-172.195313
 20
-1468.589844
 10
-172.195313
 20
-1448.589844
  0
LWPOLYLINE
  5
8E
100
AcDbEntity
  8
LAYER22
370
    18
390
0
  6
Continuous
 62
     1
100
AcDbPolyline
 90
        2
 70
     0
 10
-166.195313
 20
-1468.589844
 10
-166.195313
 20
-1448.589844
  0
LWPOLYLINE
  5
8F
100
AcDbEntity
  8
LAYER22
370
    18
390
0
  6
Continuous
 62
     1
100
AcDbPolyline
 90
        2
 70
     0
 10
-162.195313
 20
-1468.589844
 10
-162.195313
 20
-1448.589844
  0
LWPOLYLINE
  5
90
100
AcDbEntity
  8
LAYER22
370
    18
390
0
  6
Continuous
 62
     1
100
AcDbPolyline
 90
        2
 70
     0
 10
-156.195313
 20
-1468.589844
 10
-156.195313
 20
-1448.589844
  0
LWPOLYLINE
  5
91
100
AcDbEntity
  8
LAYER22
370
    18
390
0
  6
Continuous
 62
     1
100
AcDbPolyline
 90
        2
 70
     0
 10
-152.195313
 20
-1468.589844
 10
-152.195313
 20
-1448.589844
  0
LWPOLYLINE
  5
92
100
AcDbEntity
  8
LAYER22
370
    18
390
0
  6
Continuous
 62
     1
100
AcDbPolyline
 90
        2
 70
     0
 10
-146.195313
 20
-1468.589844
 10
-146.195313
 20
-1448.589844
  0
LWPOLYLINE
  5
93
100
AcDbEntity
  8
LAYER22
370
    18
390
0
  6
Continuous
 62
     1
100
AcDbPolyline
 90
        2
 70
     0
 10
-142.195313
 20
-1468.589844
 10
-142.195313
 20
-1448.589844
  0
LWPOLYLINE
  5
94
100
AcDbEntity
  8
LAYER22
370
    18
390
0
  6
Continuous
 62
     1
100
AcDbPolyline
 90
        2
 70
     0
 10
-136.195313
 20
-1468.589844
 10
-136.195313
 20
-1448.589844
  0
LWPOLYLINE
  5
95
100
AcDbEntity
  8
LAYER22
370
    18
390
0
  6
Continuous
 62
     1
100
AcDbPolyline
 90
        2
 70
     0
 10
-132.195313
 20
-1468.589844
 10
-132.195313
 20
-1448.589844
  0
LWPOLYLINE
  5
96
100
AcDbEntity
  8
LAYER22
370
    18
390
0
  6
Continuous
 62
     1
100
AcDbPolyline
 90
        2
 70
     0
 10
-126.195313
 20
-1468.589844
 10
-126.195313
 20
-1448.589844
  0
LWPOLYLINE
  5
97
100
AcDbEntity
  8
LAYER22
370
    18
390
0
  6
Continuous
 62
     1
100
AcDbPolyline
 90
        2
 70
     0
 10
-122.195313
 20
-1468.589844
 10
-122.195313
 20
-1448.589844
  0
LWPOLYLINE
  5
98
100
AcDbEntity
  8
LAYER22
370
    18
390
0
  6
Continuous
 62
     1
100
AcDbPolyline
 90
        2
 70
     0
 10
-116.195313
 20
-1468.589844
 10
-116.195313
 20
-1448.589844
  0
LWPOLYLINE
  5
99
100
AcDbEntity
  8
LAYER22
370
    18
390
0
  6
Continuous
 62
     1
100
AcDbPolyline
 90
        2
 70
     0
 10
-112.195313
 20
-1468.589844
 10
-112.195313
 20
-1448.589844
  0
LWPOLYLINE
  5
9A
100
AcDbEntity
  8
LAYER22
370
    18
390
0
  6
Continuous
 62
     1
100
AcDbPolyline
 90
        2
 70
     0
 10
-106.195313
 20
-1468.589844
 10
-106.195313
 20
-1448.589844
  0
LWPOLYLINE
  5
9B
100
AcDbEntity
  8
LAYER22
370
    18
390
0
  6
Continuous
 62
     1
100
AcDbPolyline
 90
        2
 70
     0
 10
-102.195313
 20
-1468.589844
 10
-102.195313
 20
-1448.589844
  0
LWPOLYLINE
  5
9C
100
AcDbEntity
  8
LAYER22
370
    18
390
0
  6
Continuous
 62
     1
100
AcDbPolyline
 90
        2
 70
     0
 10
-96.195313
 20
-1468.589844
 10
-96.195313
 20
-1448.589844
  0
LWPOLYLINE
  5
9D
100
AcDbEntity
  8
LAYER22
370
    18
390
0
  6
Continuous
 62
     1
100
AcDbPolyline
 90
        2
 70
     0
 10
-92.195313
 20
-1468.589844
 10
-92.195313
 20
-1448.589844
  0
LWPOLYLINE
  5
9E
100
AcDbEntity
  8
LAYER22
370
    18
390
0
  6
Continuous
 62
     1
100
AcDbPolyline
 90
        2
 70
     0
 10
-86.195313
 20
-1468.589844
 10
-86.195313
 20
-1448.589844
  0
LWPOLYLINE
  5
9F
100
AcDbEntity
  8
LAYER22
370
    18
390
0
  6
Continuous
 62
     1
100
AcDbPolyline
 90
        2
 70
     0
 10
-82.195313
 20
-1468.589844
 10
-82.195313
 20
-1448.589844
  0
LWPOLYLINE
  5
A0
100
AcDbEntity
  8
LAYER22
370
    18
390
0
  6
Continuous
 62
     1
100
AcDbPolyline
 90
        2
 70
     0
 10
-76.195313
 20
-1468.589844
 10
-76.195313
 20
-1448.589844
  0
LWPOLYLINE
  5
A1
100
AcDbEntity
  8
LAYER22
370
    18
390
0
  6
Continuous
 62
     1
100
AcDbPolyline
 90
        2
 70
     0
 10
-72.195313
 20
-1468.589844
 10
-72.195313
 20
-1448.589844
  0
LWPOLYLINE
  5
A2
100
AcDbEntity
  8
LAYER22
370
    18
390
0
  6
Continuous
 62
     1
100
AcDbPolyline
 90
        2
 70
     0
 10
-66.195313
 20
-1468.589844
 10
-66.195313
 20
-1448.589844
  0
LWPOLYLINE
  5
A3
100
AcDbEntity
  8
LAYER22
370
    18
390
0
  6
Continuous
 62
     1
100
AcDbPolyline
 90
        2
 70
     0
 10
-62.195313
 20
-1468.589844
 10
-62.195313
 20
-1448.589844
  0
LWPOLYLINE
  5
A4
100
AcDbEntity
  8
LAYER22
370
    18
390
0
  6
Continuous
 62
     1
100
AcDbPolyline
 90
        2
 70
     0
 10
-56.195313
 20
-1468.589844
 10
-56.195313
 20
-1448.589844
  0
LWPOLYLINE
  5
A5
100
AcDbEntity
  8
LAYER22
370
    18
390
0
  6
Continuous
 62
     1
100
AcDbPolyline
 90
        2
 70
     0
 10
-52.195313
 20
-1468.589844
 10
-52.195313
 20
-1448.589844
  0
LWPOLYLINE
  5
A6
100
AcDbEntity
  8
LAYER22
370
    18
390
0
  6
Continuous
 62
     1
100
AcDbPolyline
 90
        2
 70
     0
 10
-46.195313
 20
-1468.589844
 10
-46.195313
 20
-1448.589844
  0
LWPOLYLINE
  5
A7
100
AcDbEntity
  8
LAYER22
370
    18
390
0
  6
Continuous
 62
     1
100
AcDbPolyline
 90
        2
 70
     0
 10
-42.195313
 20
-1468.589844
 10
-42.195313
 20
-1448.589844
  0
LWPOLYLINE
  5
A8
100
AcDbEntity
  8
LAYER22
370
    18
390
0
  6
Continuous
 62
     1
100
AcDbPolyline
 90
        2
 70
     0
 10
-36.195313
 20
-1468.589844
 10
-36.195313
 20
-1448.589844
  0
LWPOLYLINE
  5
A9
100
AcDbEntity
  8
LAYER22
370
    18
390
0
  6
Continuous
 62
     1
100
AcDbPolyline
 90
        2
 70
     0
 10
-32.195313
 20
-1468.589844
 10
-32.195313
 20
-1448.589844
  0
LWPOLYLINE
  5
AA
100
AcDbEntity
  8
LAYER22
370
    18
390
0
  6
Continuous
 62
     1
100
AcDbPolyline
 90
        2
 70
     0
 10
-26.195313
 20
-1468.589844
 10
-26.195313
 20
-1448.589844
  0
LWPOLYLINE
  5
AB
100
AcDbEntity
  8
LAYER22
370
    18
390
0
  6
Continuous
 62
     1
100
AcDbPolyline
 90
        2
 70
     0
 10
-22.195313
 20
-1468.589844
 10
-22.195313
 20
-1448.589844
  0
LWPOLYLINE
  5
AC
100
AcDbEntity
  8
LAYER22
370
    18
390
0
  6
Continuous
 62
     1
100
AcDbPolyline
 90
        2
 70
     0
 10
-16.195313
 20
-1468.589844
 10
-16.195313
 20
-1448.589844
  0
LWPOLYLINE
  5
AD
100
AcDbEntity
  8
LAYER22
370
    18
390
0
  6
Continuous
 62
     1
100
AcDbPolyline
 90
        2
 70
     0
 10
-12.195313
 20
-1468.589844
 10
-12.195313
 20
-1448.589844
  0
LWPOLYLINE
  5
AE
100
AcDbEntity
  8
LAYER22
370
    18
390
0
  6
Continuous
 62
     1
100
AcDbPolyline
 90
        2
 70
     0
 10
-6.195313
 20
-1468.589844
 10
-6.195313
 20
-1448.589844
  0
LWPOLYLINE
  5
AF
100
AcDbEntity
  8
LAYER22
370
    18
390
0
  6
Continuous
 62
     1
100
AcDbPolyline
 90
        2
 70
     0
 10
-2.195313
 20
-1468.589844
 10
-2.195313
 20
-1448.589844
  0
LWPOLYLINE
  5
B0
100
AcDbEntity
  8
LAYER22
370
    18
390
0
  6
Continuous
 62
     1
100
AcDbPolyline
 90
        2
 70
     0
 10
3.804688
 20
-1468.589844
 10
3.804688
 20
-1448.589844
  0
LWPOLYLINE
  5
B1
100
AcDbEntity
  8
LAYER22
370
    18
390
0
  6
Continuous
 62
     1
100
AcDbPolyline
 90
        2
 70
     0
 10
7.804688
 20
-1468.589844
 10
7.804688
 20
-1448.589844
  0
LWPOLYLINE
  5
B2
100
AcDbEntity
  8
LAYER22
370
    18
390
0
  6
Continuous
 62
     1
100
AcDbPolyline
 90
        2
 70
     0
 10
13.804688
 20
-1468.589844
 10
13.804688
 20
-1448.589844
  0
LWPOLYLINE
  5
B3
100
AcDbEntity
  8
LAYER22
370
    18
390
0
  6
Continuous
 62
     1
100
AcDbPolyline
 90
        2
 70
     0
 10
21.804688
 20
-1468.589844
 10
21.804688
 20
-1448.589844
  0
LWPOLYLINE
  5
B4
100
AcDbEntity
  8
LAYER22
370
    18
390
0
  6
Continuous
 62
     1
100
AcDbPolyline
 90
        2
 70
     0
 10
25.804688
 20
-1468.589844
 10
25.804688
 20
-1448.589844
  0
LWPOLYLINE
  5
B5
100
AcDbEntity
  8
LAYER22
370
    18
390
0
  6
Continuous
 62
     1
100
AcDbPolyline
 90
        2
 70
     0
 10
31.804688
 20
-1468.589844
 10
31.804688
 20
-1448.589844
  0
LWPOLYLINE
  5
B6
100
AcDbEntity
  8
LAYER22
370
    18
390
0
  6
Continuous
 62
     1
100
AcDbPolyline
 90
        2
 70
     0
 10
35.804688
 20
-1468.589844
 10
35.804688
 20
-1448.589844
  0
LWPOLYLINE
  5
B7
100
AcDbEntity
  8
LAYER22
370
    18
390
0
  6
Continuous
 62
     1
100
AcDbPolyline
 90
        2
 70
     0
 10
41.804688
 20
-1468.589844
 10
41.804688
 20
-1448.589844
  0
LWPOLYLINE
  5
B8
100
AcDbEntity
  8
LAYER22
370
    18
390
0
  6
Continuous
 62
     1
100
AcDbPolyline
 90
        2
 70
     0
 10
45.804688
 20
-1468.589844
 10
45.804688
 20
-1448.589844
  0
LWPOLYLINE
  5
B9
100
AcDbEntity
  8
LAYER22
370
    18
390
0
  6
Continuous
 62
     1
100
AcDbPolyline
 90
        2
 70
     0
 10
51.804688
 20
-1468.589844
 10
51.804688
 20
-1448.589844
  0
LWPOLYLINE
  5
BA
100
AcDbEntity
  8
LAYER22
370
    18
390
0
  6
Continuous
 62
     1
100
AcDbPolyline
 90
        2
 70
     0
 10
55.804688
 20
-1468.589844
 10
55.804688
 20
-1448.589844
  0
LWPOLYLINE
  5
BB
100
AcDbEntity
  8
LAYER22
370
    18
390
0
  6
Continuous
 62
     1
100
AcDbPolyline
 90
        2
 70
     0
 10
61.804688
 20
-1468.589844
 10
61.804688
 20
-1448.589844
  0
LWPOLYLINE
  5
BC
100
AcDbEntity
  8
LAYER22
370
    18
390
0
  6
Continuous
 62
     1
100
AcDbPolyline
 90
        2
 70
     0
 10
65.804688
 20
-1468.589844
 10
65.804688
 20
-1448.589844
  0
LWPOLYLINE
  5
BD
100
AcDbEntity
  8
LAYER22
370
    18
390
0
  6
Continuous
 62
     1
100
AcDbPolyline
 90
        2
 70
     0
 10
71.804688
 20
-1468.589844
 10
71.804688
 20
-1448.589844
  0
LWPOLYLINE
  5
BE
100
AcDbEntity
  8
LAYER22
370
    18
390
0
  6
Continuous
 62
     1
100
AcDbPolyline
 90
        2
 70
     0
 10
75.804688
 20
-1468.589844
 10
75.804688
 20
-1448.589844
  0
LWPOLYLINE
  5
BF
100
AcDbEntity
  8
LAYER22
370
    18
390
0
  6
Continuous
 62
     1
100
AcDbPolyline
 90
        2
 70
     0
 10
81.804688
 20
-1468.589844
 10
81.804688
 20
-1448.589844
  0
LWPOLYLINE
  5
C0
100
AcDbEntity
  8
LAYER22
370
    18
390
0
  6
Continuous
 62
     1
100
AcDbPolyline
 90
        2
 70
     0
 10
85.804688
 20
-1468.589844
 10
85.804688
 20
-1448.589844
  0
LWPOLYLINE
  5
C1
100
AcDbEntity
  8
LAYER22
370
    18
390
0
  6
Continuous
 62
     1
100
AcDbPolyline
 90
        2
 70
     0
 10
91.804688
 20
-1468.589844
 10
91.804688
 20
-1448.589844
  0
LWPOLYLINE
  5
C2
100
AcDbEntity
  8
LAYER22
370
    18
390
0
  6
Continuous
 62
     1
100
AcDbPolyline
 90
        2
 70
     0
 10
95.804688
 20
-1468.589844
 10
95.804688
 20
-1448.589844
  0
LWPOLYLINE
  5
C3
100
AcDbEntity
  8
LAYER22
370
    18
390
0
  6
Continuous
 62
     1
100
AcDbPolyline
 90
        2
 70
     0
 10
101.804688
 20
-1468.589844
 10
101.804688
 20
-1448.589844
  0
LWPOLYLINE
  5
C4
100
AcDbEntity
  8
LAYER22
370
    18
390
0
  6
Continuous
 62
     1
100
AcDbPolyline
 90
        2
 70
     0
 10
105.804688
 20
-1468.589844
 10
105.804688
 20
-1448.589844
  0
LWPOLYLINE
  5
C5
100
AcDbEntity
  8
LAYER22
370
    18
390
0
  6
Continuous
 62
     1
100
AcDbPolyline
 90
        2
 70
     0
 10
111.804688
 20
-1468.589844
 10
111.804688
 20
-1448.589844
  0
LWPOLYLINE
  5
C6
100
AcDbEntity
  8
LAYER22
370
    18
390
0
  6
Continuous
 62
     1
100
AcDbPolyline
 90
        2
 70
     0
 10
115.804688
 20
-1468.589844
 10
115.804688
 20
-1448.589844
  0
LWPOLYLINE
  5
C7
100
AcDbEntity
  8
LAYER22
370
    18
390
0
  6
Continuous
 62
     1
100
AcDbPolyline
 90
        2
 70
     0
 10
121.804688
 20
-1468.589844
 10
121.804688
 20
-1448.589844
  0
LWPOLYLINE
  5
C8
100
AcDbEntity
  8
LAYER22
370
    18
390
0
  6
Continuous
 62
     1
100
AcDbPolyline
 90
        2
 70
     0
 10
125.804688
 20
-1468.589844
 10
125.804688
 20
-1448.589844
  0
LWPOLYLINE
  5
C9
100
AcDbEntity
  8
LAYER22
370
    18
390
0
  6
Continuous
 62
     1
100
AcDbPolyline
 90
        2
 70
     0
 10
131.804688
 20
-1468.589844
 10
131.804688
 20
-1448.589844
  0
LWPOLYLINE
  5
CA
100
AcDbEntity
  8
LAYER22
370
    18
390
0
  6
Continuous
 62
     1
100
AcDbPolyline
 90
        2
 70
     0
 10
135.804688
 20
-1468.589844
 10
135.804688
 20
-1448.589844
  0
LWPOLYLINE
  5
CB
100
AcDbEntity
  8
LAYER22
370
    18
390
0
  6
Continuous
 62
     1
100
AcDbPolyline
 90
        2
 70
     0
 10
141.804688
 20
-1468.589844
 10
141.804688
 20
-1448.589844
  0
LWPOLYLINE
  5
CC
100
AcDbEntity
  8
LAYER22
370
    18
390
0
  6
Continuous
 62
     1
100
AcDbPolyline
 90
        2
 70
     0
 10
145.804688
 20
-1468.589844
 10
145.804688
 20
-1448.589844
  0
LWPOLYLINE
  5
CD
100
AcDbEntity
  8
LAYER22
370
    18
390
0
  6
Continuous
 62
     1
100
AcDbPolyline
 90
        2
 70
     0
 10
151.804688
 20
-1468.589844
 10
151.804688
 20
-1448.589844
  0
LWPOLYLINE
  5
CE
100
AcDbEntity
  8
LAYER22
370
    18
390
0
  6
Continuous
 62
     1
100
AcDbPolyline
 90
        2
 70
     0
 10
155.804688
 20
-1468.589844
 10
155.804688
 20
-1448.589844
  0
LWPOLYLINE
  5
CF
100
AcDbEntity
  8
LAYER22
370
    18
390
0
  6
Continuous
 62
     1
100
AcDbPolyline
 90
        2
 70
     0
 10
161.804688
 20
-1468.589844
 10
161.804688
 20
-1448.589844
  0
LWPOLYLINE
  5
D0
100
AcDbEntity
  8
LAYER22
370
    18
390
0
  6
Continuous
 62
     1
100
AcDbPolyline
 90
        2
 70
     0
 10
165.804688
 20
-1468.589844
 10
165.804688
 20
-1448.589844
  0
LWPOLYLINE
  5
D1
100
AcDbEntity
  8
LAYER22
370
    18
390
0
  6
Continuous
 62
     1
100
AcDbPolyline
 90
        2
 70
     0
 10
171.804688
 20
-1468.589844
 10
171.804688
 20
-1448.589844
  0
LWPOLYLINE
  5
D2
100
AcDbEntity
  8
LAYER22
370
    18
390
0
  6
Continuous
 62
     1
100
AcDbPolyline
 90
        2
 70
     0
 10
175.804688
 20
-1468.589844
 10
175.804688
 20
-1448.589844
  0
LWPOLYLINE
  5
D3
100
AcDbEntity
  8
LAYER22
370
    18
390
0
  6
Continuous
 62
     1
100
AcDbPolyline
 90
        2
 70
     0
 10
181.804688
 20
-1468.589844
 10
181.804688
 20
-1448.589844
  0
LWPOLYLINE
  5
D4
100
AcDbEntity
  8
LAYER22
370
    18
390
0
  6
Continuous
 62
     1
100
AcDbPolyline
 90
        2
 70
     0
 10
185.804688
 20
-1468.589844
 10
185.804688
 20
-1448.589844
  0
LWPOLYLINE
  5
D5
100
AcDbEntity
  8
LAYER22
370
    18
390
0
  6
Continuous
 62
     1
100
AcDbPolyline
 90
        2
 70
     0
 10
191.804688
 20
-1468.589844
 10
191.804688
 20
-1448.589844
  0
LWPOLYLINE
  5
D6
100
AcDbEntity
  8
LAYER22
370
    18
390
0
  6
Continuous
 62
     1
100
AcDbPolyline
 90
        2
 70
     0
 10
195.804688
 20
-1468.589844
 10
195.804688
 20
-1448.589844
  0
LWPOLYLINE
  5
D7
100
AcDbEntity
  8
LAYER22
370
    18
390
0
  6
Continuous
 62
     1
100
AcDbPolyline
 90
        2
 70
     0
 10
201.804688
 20
-1468.589844
 10
201.804688
 20
-1448.589844
  0
LWPOLYLINE
  5
D8
100
AcDbEntity
  8
LAYER22
370
    18
390
0
  6
Continuous
 62
     1
100
AcDbPolyline
 90
        2
 70
     0
 10
205.804688
 20
-1468.589844
 10
205.804688
 20
-1448.589844
  0
LWPOLYLINE
  5
D9
100
AcDbEntity
  8
LAYER22
370
    18
390
0
  6
Continuous
 62
     1
100
AcDbPolyline
 90
        2
 70
     0
 10
211.804688
 20
-1468.589844
 10
211.804688
 20
-1448.589844
  0
LWPOLYLINE
  5
DA
100
AcDbEntity
  8
LAYER22
370
    18
390
0
  6
Continuous
 62
     1
100
AcDbPolyline
 90
        2
 70
     0
 10
215.804688
 20
-1468.589844
 10
215.804688
 20
-1448.589844
  0
LWPOLYLINE
  5
DB
100
AcDbEntity
  8
LAYER22
370
    18
390
0
  6
Continuous
 62
     1
100
AcDbPolyline
 90
        2
 70
     0
 10
221.804688
 20
-1468.589844
 10
221.804688
 20
-1448.589844
  0
LWPOLYLINE
  5
DC
100
AcDbEntity
  8
LAYER22
370
    18
390
0
  6
Continuous
 62
     1
100
AcDbPolyline
 90
        2
 70
     0
 10
225.804688
 20
-1468.589844
 10
225.804688
 20
-1448.589844
  0
LWPOLYLINE
  5
DD
100
AcDbEntity
  8
LAYER22
370
    18
390
0
  6
Continuous
 62
     1
100
AcDbPolyline
 90
        2
 70
     0
 10
231.804688
 20
-1468.589844
 10
231.804688
 20
-1448.589844
  0
LWPOLYLINE
  5
DE
100
AcDbEntity
  8
LAYER22
370
    18
390
0
  6
Continuous
 62
     1
100
AcDbPolyline
 90
        2
 70
     0
 10
235.804688
 20
-1468.589844
 10
235.804688
 20
-1448.589844
  0
LWPOLYLINE
  5
DF
100
AcDbEntity
  8
LAYER22
370
    18
390
0
  6
Continuous
 62
     1
100
AcDbPolyline
 90
        2
 70
     0
 10
241.804688
 20
-1468.589844
 10
241.804688
 20
-1448.589844
  0
LWPOLYLINE
  5
E0
100
AcDbEntity
  8
LAYER22
370
    18
390
0
  6
Continuous
 62
     1
100
AcDbPolyline
 90
        2
 70
     0
 10
245.804688
 20
-1468.589844
 10
245.804688
 20
-1448.589844
  0
LWPOLYLINE
  5
E1
100
AcDbEntity
  8
LAYER22
370
    18
390
0
  6
Continuous
 62
     1
100
AcDbPolyline
 90
        2
 70
     0
 10
251.804688
 20
-1468.589844
 10
251.804688
 20
-1448.589844
  0
LWPOLYLINE
  5
E2
100
AcDbEntity
  8
LAYER22
370
    18
390
0
  6
Continuous
 62
     1
100
AcDbPolyline
 90
        2
 70
     0
 10
255.804688
 20
-1468.589844
 10
255.804688
 20
-1448.589844
  0
LWPOLYLINE
  5
E3
100
AcDbEntity
  8
LAYER22
370
    18
390
0
  6
Continuous
 62
     1
100
AcDbPolyline
 90
        2
 70
     0
 10
260.804688
 20
-1468.589844
 10
260.804688
 20
-1448.589844
  0
LWPOLYLINE
  5
E4
100
AcDbEntity
  8
LAYER22
370
    18
390
0
  6
Continuous
 62
     1
100
AcDbPolyline
 90
        2
 70
     0
 10
265.804688
 20
-1468.589844
 10
265.804688
 20
-1448.589844
  0
LWPOLYLINE
  5
E5
100
AcDbEntity
  8
LAYER22
370
    18
390
0
  6
Continuous
 62
     1
100
AcDbPolyline
 90
        2
 70
     0
 10
270.804688
 20
-1468.589844
 10
270.804688
 20
-1448.589844
  0
LWPOLYLINE
  5
E6
100
AcDbEntity
  8
LAYER22
370
    18
390
0
  6
Continuous
 62
     1
100
AcDbPolyline
 90
        2
 70
     0
 10
275.804688
 20
-1468.589844
 10
275.804688
 20
-1448.589844
  0
LWPOLYLINE
  5
E7
100
AcDbEntity
  8
LAYER22
370
    18
390
0
  6
Continuous
 62
     1
100
AcDbPolyline
 90
        2
 70
     0
 10
280.804688
 20
-1468.589844
 10
280.804688
 20
-1448.589844
  0
LWPOLYLINE
  5
E8
100
AcDbEntity
  8
LAYER22
370
    18
390
0
  6
Continuous
 62
     1
100
AcDbPolyline
 90
        2
 70
     0
 10
285.804688
 20
-1468.589844
 10
285.804688
 20
-1448.589844
  0
LWPOLYLINE
  5
E9
100
AcDbEntity
  8
LAYER22
370
    18
390
0
  6
Continuous
 62
     1
100
AcDbPolyline
 90
        2
 70
     0
 10
290.804688
 20
-1468.589844
 10
290.804688
 20
-1448.589844
  0
LWPOLYLINE
  5
EA
100
AcDbEntity
  8
LAYER22
370
    18
390
0
  6
Continuous
 62
     1
100
AcDbPolyline
 90
        2
 70
     0
 10
295.804688
 20
-1468.589844
 10
295.804688
 20
-1448.589844
  0
LWPOLYLINE
  5
EB
100
AcDbEntity
  8
LAYER22
370
    18
390
0
  6
Continuous
 62
     1
100
AcDbPolyline
 90
        2
 70
     0
 10
300.804688
 20
-1468.589844
 10
300.804688
 20
-1448.589844
  0
LWPOLYLINE
  5
EC
100
AcDbEntity
  8
LAYER22
370
    18
390
0
  6
Continuous
 62
     1
100
AcDbPolyline
 90
        2
 70
     0
 10
305.804688
 20
-1468.589844
 10
305.804688
 20
-1448.589844
  0
LWPOLYLINE
  5
ED
100
AcDbEntity
  8
LAYER22
370
    18
390
0
  6
Continuous
 62
     1
100
AcDbPolyline
 90
        2
 70
     0
 10
310.804688
 20
-1468.589844
 10
310.804688
 20
-1448.589844
  0
LWPOLYLINE
  5
EE
100
AcDbEntity
  8
LAYER22
370
    18
390
0
  6
Continuous
 62
     1
100
AcDbPolyline
 90
        2
 70
     0
 10
315.804688
 20
-1468.589844
 10
315.804688
 20
-1448.589844
  0
LWPOLYLINE
  5
EF
100
AcDbEntity
  8
LAYER22
370
    18
390
0
  6
Continuous
 62
     1
100
AcDbPolyline
 90
        2
 70
     0
 10
320.804688
 20
-1468.589844
 10
320.804688
 20
-1448.589844
  0
LWPOLYLINE
  5
F0
100
AcDbEntity
  8
LAYER22
370
    18
390
0
  6
Continuous
 62
     1
100
AcDbPolyline
 90
        2
 70
     0
 10
325.804688
 20
-1468.589844
 10
325.804688
 20
-1448.589844
  0
LWPOLYLINE
  5
F1
100
AcDbEntity
  8
LAYER22
370
    18
390
0
  6
Continuous
 62
     1
100
AcDbPolyline
 90
        2
 70
     0
 10
330.804688
 20
-1468.589844
 10
330.804688
 20
-1448.589844
  0
LWPOLYLINE
  5
F2
100
AcDbEntity
  8
LAYER22
370
    18
390
0
  6
Continuous
 62
     1
100
AcDbPolyline
 90
        2
 70
     0
 10
335.804688
 20
-1468.589844
 10
335.804688
 20
-1448.589844
  0
LWPOLYLINE
  5
F3
100
AcDbEntity
  8
LAYER22
370
    18
390
0
  6
Continuous
 62
     1
100
AcDbPolyline
 90
        2
 70
     0
 10
340.804688
 20
-1468.589844
 10
340.804688
 20
-1448.589844
  0
LWPOLYLINE
  5
F4
100
AcDbEntity
  8
LAYER22
370
    18
390
0
  6
Continuous
 62
     1
100
AcDbPolyline
 90
        2
 70
     0
 10
345.804688
 20
-1468.589844
 10
345.804688
 20
-1448.589844
  0
LWPOLYLINE
  5
F5
100
AcDbEntity
  8
LAYER22
370
    18
390
0
  6
Continuous
 62
     1
100
AcDbPolyline
 90
        2
 70
     0
 10
350.804688
 20
-1468.589844
 10
350.804688
 20
-1448.589844
  0
LWPOLYLINE
  5
F6
100
AcDbEntity
  8
LAYER22
370
    18
390
0
  6
Continuous
 62
     1
100
AcDbPolyline
 90
        2
 70
     0
 10
355.804688
 20
-1468.589844
 10
355.804688
 20
-1448.589844
  0
LWPOLYLINE
  5
F7
100
AcDbEntity
  8
LAYER22
370
    18
390
0
  6
Continuous
 62
     1
100
AcDbPolyline
 90
        2
 70
     0
 10
360.804688
 20
-1468.589844
 10
360.804688
 20
-1448.589844
  0
LWPOLYLINE
  5
F8
100
AcDbEntity
  8
LAYER22
370
    18
390
0
  6
Continuous
 62
     1
100
AcDbPolyline
 90
        2
 70
     0
 10
365.804688
 20
-1468.589844
 10
365.804688
 20
-1448.589844
  0
LWPOLYLINE
  5
F9
100
AcDbEntity
  8
LAYER22
370
    18
390
0
  6
Continuous
 62
     1
100
AcDbPolyline
 90
        2
 70
     0
 10
370.804688
 20
-1468.589844
 10
370.804688
 20
-1448.589844
  0
LWPOLYLINE
  5
FA
100
AcDbEntity
  8
LAYER22
370
    18
390
0
  6
Continuous
 62
     1
100
AcDbPolyline
 90
        2
 70
     0
 10
375.804688
 20
-1468.589844
 10
375.804688
 20
-1448.589844
  0
LWPOLYLINE
  5
FB
100
AcDbEntity
  8
LAYER22
370
    18
390
0
  6
Continuous
 62
     1
100
AcDbPolyline
 90
        2
 70
     0
 10
380.804688
 20
-1468.589844
 10
380.804688
 20
-1448.589844
  0
LWPOLYLINE
  5
FC
100
AcDbEntity
  8
LAYER22
370
    18
390
0
  6
Continuous
 62
     1
100
AcDbPolyline
 90
        2
 70
     0
 10
385.804688
 20
-1468.589844
 10
385.804688
 20
-1448.589844
  0
LWPOLYLINE
  5
FD
100
AcDbEntity
  8
LAYER22
370
    18
390
0
  6
Continuous
 62
     1
100
AcDbPolyline
 90
        2
 70
     0
 10
390.804688
 20
-1468.589844
 10
390.804688
 20
-1448.589844
  0
LWPOLYLINE
  5
FE
100
AcDbEntity
  8
LAYER22
370
    18
390
0
  6
Continuous
 62
     1
100
AcDbPolyline
 90
        2
 70
     0
 10
395.804688
 20
-1468.589844
 10
395.804688
 20
-1448.589844
  0
LWPOLYLINE
  5
FF
100
AcDbEntity
  8
LAYER22
370
    18
390
0
  6
Continuous
 62
     1
100
AcDbPolyline
 90
        2
 70
     0
 10
400.804688
 20
-1468.589844
 10
400.804688
 20
-1448.589844
  0
LWPOLYLINE
  5
100
100
AcDbEntity
  8
LAYER22
370
    18
390
0
  6
Continuous
 62
     1
100
AcDbPolyline
 90
        2
 70
     0
 10
405.804688
 20
-1468.589844
 10
405.804688
 20
-1448.589844
  0
LWPOLYLINE
  5
101
100
AcDbEntity
  8
LAYER22
370
    18
390
0
  6
Continuous
 62
     1
100
AcDbPolyline
 90
        2
 70
     0
 10
410.804688
 20
-1468.589844
 10
410.804688
 20
-1448.589844
  0
LWPOLYLINE
  5
102
100
AcDbEntity
  8
LAYER22
370
    18
390
0
  6
Continuous
 62
     1
100
AcDbPolyline
 90
        2
 70
     0
 10
415.804688
 20
-1468.589844
 10
415.804688
 20
-1448.589844
  0
LWPOLYLINE
  5
103
100
AcDbEntity
  8
LAYER22
370
    18
390
0
  6
Continuous
 62
     1
100
AcDbPolyline
 90
        2
 70
     0
 10
420.804688
 20
-1468.589844
 10
420.804688
 20
-1448.589844
  0
LWPOLYLINE
  5
104
100
AcDbEntity
  8
LAYER22
370
    18
390
0
  6
Continuous
 62
     1
100
AcDbPolyline
 90
        2
 70
     0
 10
425.804688
 20
-1468.589844
 10
425.804688
 20
-1448.589844
  0
LWPOLYLINE
  5
105
100
AcDbEntity
  8
LAYER22
370
    18
390
0
  6
Continuous
 62
     1
100
AcDbPolyline
 90
        2
 70
     0
 10
430.804688
 20
-1468.589844
 10
430.804688
 20
-1448.589844
  0
LWPOLYLINE
  5
106
100
AcDbEntity
  8
LAYER22
370
    18
390
0
  6
Continuous
 62
     1
100
AcDbPolyline
 90
        2
 70
     0
 10
435.804688
 20
-1468.589844
 10
435.804688
 20
-1448.589844
  0
LWPOLYLINE
  5
107
100
AcDbEntity
  8
LAYER22
370
    18
390
0
  6
Continuous
 62
     1
100
AcDbPolyline
 90
        2
 70
     0
 10
440.804688
 20
-1468.589844
 10
440.804688
 20
-1448.589844
  0
LWPOLYLINE
  5
108
100
AcDbEntity
  8
LAYER22
370
    18
390
0
  6
Continuous
 62
     1
100
AcDbPolyline
 90
        2
 70
     0
 10
445.804688
 20
-1468.589844
 10
445.804688
 20
-1448.589844
  0
LWPOLYLINE
  5
109
100
AcDbEntity
  8
LAYER22
370
    18
390
0
  6
Continuous
 62
     1
100
AcDbPolyline
 90
        2
 70
     0
 10
450.804688
 20
-1468.589844
 10
450.804688
 20
-1448.589844
  0
LWPOLYLINE
  5
10A
100
AcDbEntity
  8
LAYER22
370
    18
390
0
  6
Continuous
 62
     1
100
AcDbPolyline
 90
        2
 70
     0
 10
455.804688
 20
-1468.589844
 10
455.804688
 20
-1448.589844
  0
LWPOLYLINE
  5
10B
100
AcDbEntity
  8
LAYER22
370
    18
390
0
  6
Continuous
 62
     1
100
AcDbPolyline
 90
        2
 70
     0
 10
460.804688
 20
-1468.589844
 10
460.804688
 20
-1448.589844
  0
LWPOLYLINE
  5
10C
100
AcDbEntity
  8
LAYER22
370
    18
390
0
  6
Continuous
 62
     1
100
AcDbPolyline
 90
        2
 70
     0
 10
465.804688
 20
-1468.589844
 10
465.804688
 20
-1448.589844
  0
LWPOLYLINE
  5
10D
100
AcDbEntity
  8
LAYER22
370
    18
390
0
  6
Continuous
 62
     1
100
AcDbPolyline
 90
        2
 70
     0
 10
470.804688
 20
-1468.589844
 10
470.804688
 20
-1448.589844
  0
LWPOLYLINE
  5
10E
100
AcDbEntity
  8
LAYER22
370
    18
390
0
  6
Continuous
 62
     1
100
AcDbPolyline
 90
        2
 70
     0
 10
475.804688
 20
-1468.589844
 10
475.804688
 20
-1448.589844
  0
LWPOLYLINE
  5
10F
100
AcDbEntity
  8
LAYER22
370
    18
390
0
  6
Continuous
 62
     1
100
AcDbPolyline
 90
        2
 70
     0
 10
480.804688
 20
-1468.589844
 10
480.804688
 20
-1448.589844
  0
LWPOLYLINE
  5
110
100
AcDbEntity
  8
LAYER22
370
    18
390
0
  6
Continuous
 62
     1
100
AcDbPolyline
 90
        2
 70
     0
 10
485.804688
 20
-1468.589844
 10
485.804688
 20
-1448.589844
  0
LWPOLYLINE
  5
111
100
AcDbEntity
  8
LAYER22
370
    18
390
0
  6
Continuous
 62
     1
100
AcDbPolyline
 90
        2
 70
     0
 10
490.804688
 20
-1468.589844
 10
490.804688
 20
-1448.589844
  0
LWPOLYLINE
  5
112
100
AcDbEntity
  8
LAYER22
370
    18
390
0
  6
Continuous
 62
     1
100
AcDbPolyline
 90
        2
 70
     0
 10
495.804688
 20
-1468.589844
 10
495.804688
 20
-1448.589844
  0
LWPOLYLINE
  5
113
100
AcDbEntity
  8
LAYER22
370
    18
390
0
  6
Continuous
 62
     1
100
AcDbPolyline
 90
        2
 70
     0
 10
500.804688
 20
-1468.589844
 10
500.804688
 20
-1448.589844
  0
LWPOLYLINE
  5
114
100
AcDbEntity
  8
LAYER22
370
    18
390
0
  6
Continuous
 62
     1
100
AcDbPolyline
 90
        2
 70
     0
 10
505.804688
 20
-1468.589844
 10
505.804688
 20
-1448.589844
  0
LWPOLYLINE
  5
115
100
AcDbEntity
  8
LAYER22
370
    18
390
0
  6
Continuous
 62
     1
100
AcDbPolyline
 90
        2
 70
     0
 10
510.804688
 20
-1468.589844
 10
510.804688
 20
-1448.589844
  0
LWPOLYLINE
  5
116
100
AcDbEntity
  8
LAYER22
370
    18
390
0
  6
Continuous
 62
     1
100
AcDbPolyline
 90
        4
 70
     1
 10
-476.195313
 20
908.410156
 10
-476.195313
 20
928.410156
 10
510.804688
 20
928.410156
 10
510.804688
 20
908.410156
  0
LWPOLYLINE
  5
117
100
AcDbEntity
  8
LAYER22
370
    18
390
0
  6
Continuous
 62
     1
100
AcDbPolyline
 90
        2
 70
     0
 10
-471.195313
 20
908.410156
 10
-471.195313
 20
928.410156
  0
LWPOLYLINE
  5
118
100
AcDbEntity
  8
LAYER22
370
    18
390
0
  6
Continuous
 62
     1
100
AcDbPolyline
 90
        2
 70
     0
 10
-466.195313
 20
908.410156
 10
-466.195313
 20
928.410156
  0
LWPOLYLINE
  5
119
100
AcDbEntity
  8
LAYER22
370
    18
390
0
  6
Continuous
 62
     1
100
AcDbPolyline
 90
        2
 70
     0
 10
-461.195313
 20
908.410156
 10
-461.195313
 20
928.410156
  0
LWPOLYLINE
  5
11A
100
AcDbEntity
  8
LAYER22
370
    18
390
0
  6
Continuous
 62
     1
100
AcDbPolyline
 90
        2
 70
     0
 10
-456.195313
 20
908.410156
 10
-456.195313
 20
928.410156
  0
LWPOLYLINE
  5
11B
100
AcDbEntity
  8
LAYER22
370
    18
390
0
  6
Continuous
 62
     1
100
AcDbPolyline
 90
        2
 70
     0
 10
-451.195313
 20
908.410156
 10
-451.195313
 20
928.410156
  0
LWPOLYLINE
  5
11C
100
AcDbEntity
  8
LAYER22
370
    18
390
0
  6
Continuous
 62
     1
100
AcDbPolyline
 90
        2
 70
     0
 10
-446.195313
 20
908.410156
 10
-446.195313
 20
928.410156
  0
LWPOLYLINE
  5
11D
100
AcDbEntity
  8
LAYER22
370
    18
390
0
  6
Continuous
 62
     1
100
AcDbPolyline
 90
        2
 70
     0
 10
-441.195313
 20
908.410156
 10
-441.195313
 20
928.410156
  0
LWPOLYLINE
  5
11E
100
AcDbEntity
  8
LAYER22
370
    18
390
0
  6
Continuous
 62
     1
100
AcDbPolyline
 90
        2
 70
     0
 10
-436.195313
 20
908.410156
 10
-436.195313
 20
928.410156
  0
LWPOLYLINE
  5
11F
100
AcDbEntity
  8
LAYER22
370
    18
390
0
  6
Continuous
 62
     1
100
AcDbPolyline
 90
        2
 70
     0
 10
-431.195313
 20
908.410156
 10
-431.195313
 20
928.410156
  0
LWPOLYLINE
  5
120
100
AcDbEntity
  8
LAYER22
370
    18
390
0
  6
Continuous
 62
     1
100
AcDbPolyline
 90
        2
 70
     0
 10
-426.195313
 20
908.410156
 10
-426.195313
 20
928.410156
  0
LWPOLYLINE
  5
121
100
AcDbEntity
  8
LAYER22
370
    18
390
0
  6
Continuous
 62
     1
100
AcDbPolyline
 90
        2
 70
     0
 10
-421.195313
 20
908.410156
 10
-421.195313
 20
928.410156
  0
LWPOLYLINE
  5
122
100
AcDbEntity
  8
LAYER22
370
    18
390
0
  6
Continuous
 62
     1
100
AcDbPolyline
 90
        2
 70
     0
 10
-416.195313
 20
908.410156
 10
-416.195313
 20
928.410156
  0
LWPOLYLINE
  5
123
100
AcDbEntity
  8
LAYER22
370
    18
390
0
  6
Continuous
 62
     1
100
AcDbPolyline
 90
        2
 70
     0
 10
-411.195313
 20
908.410156
 10
-411.195313
 20
928.410156
  0
LWPOLYLINE
  5
124
100
AcDbEntity
  8
LAYER22
370
    18
390
0
  6
Continuous
 62
     1
100
AcDbPolyline
 90
        2
 70
     0
 10
-406.195313
 20
908.410156
 10
-406.195313
 20
928.410156
  0
LWPOLYLINE
  5
125
100
AcDbEntity
  8
LAYER22
370
    18
390
0
  6
Continuous
 62
     1
100
AcDbPolyline
 90
        2
 70
     0
 10
-401.195313
 20
908.410156
 10
-401.195313
 20
928.410156
  0
LWPOLYLINE
  5
126
100
AcDbEntity
  8
LAYER22
370
    18
390
0
  6
Continuous
 62
     1
100
AcDbPolyline
 90
        2
 70
     0
 10
-396.195313
 20
908.410156
 10
-396.195313
 20
928.410156
  0
LWPOLYLINE
  5
127
100
AcDbEntity
  8
LAYER22
370
    18
390
0
  6
Continuous
 62
     1
100
AcDbPolyline
 90
        2
 70
     0
 10
-391.195313
 20
908.410156
 10
-391.195313
 20
928.410156
  0
LWPOLYLINE
  5
128
100
AcDbEntity
  8
LAYER22
370
    18
390
0
  6
Continuous
 62
     1
100
AcDbPolyline
 90
        2
 70
     0
 10
-386.195313
 20
908.410156
 10
-386.195313
 20
928.410156
  0
LWPOLYLINE
  5
129
100
AcDbEntity
  8
LAYER22
370
    18
390
0
  6
Continuous
 62
     1
100
AcDbPolyline
 90
        2
 70
     0
 10
-381.195313
 20
908.410156
 10
-381.195313
 20
928.410156
  0
LWPOLYLINE
  5
12A
100
AcDbEntity
  8
LAYER22
370
    18
390
0
  6
Continuous
 62
     1
100
AcDbPolyline
 90
        2
 70
     0
 10
-376.195313
 20
908.410156
 10
-376.195313
 20
928.410156
  0
LWPOLYLINE
  5
12B
100
AcDbEntity
  8
LAYER22
370
    18
390
0
  6
Continuous
 62
     1
100
AcDbPolyline
 90
        2
 70
     0
 10
-371.195313
 20
908.410156
 10
-371.195313
 20
928.410156
  0
LWPOLYLINE
  5
12C
100
AcDbEntity
  8
LAYER22
370
    18
390
0
  6
Continuous
 62
     1
100
AcDbPolyline
 90
        2
 70
     0
 10
-366.195313
 20
908.410156
 10
-366.195313
 20
928.410156
  0
LWPOLYLINE
  5
12D
100
AcDbEntity
  8
LAYER22
370
    18
390
0
  6
Continuous
 62
     1
100
AcDbPolyline
 90
        2
 70
     0
 10
-361.195313
 20
908.410156
 10
-361.195313
 20
928.410156
  0
LWPOLYLINE
  5
12E
100
AcDbEntity
  8
LAYER22
370
    18
390
0
  6
Continuous
 62
     1
100
AcDbPolyline
 90
        2
 70
     0
 10
-356.195313
 20
908.410156
 10
-356.195313
 20
928.410156
  0
LWPOLYLINE
  5
12F
100
AcDbEntity
  8
LAYER22
370
    18
390
0
  6
Continuous
 62
     1
100
AcDbPolyline
 90
        2
 70
     0
 10
-351.195313
 20
908.410156
 10
-351.195313
 20
928.410156
  0
LWPOLYLINE
  5
130
100
AcDbEntity
  8
LAYER22
370
    18
390
0
  6
Continuous
 62
     1
100
AcDbPolyline
 90
        2
 70
     0
 10
-346.195313
 20
908.410156
 10
-346.195313
 20
928.410156
  0
LWPOLYLINE
  5
131
100
AcDbEntity
  8
LAYER22
370
    18
390
0
  6
Continuous
 62
     1
100
AcDbPolyline
 90
        2
 70
     0
 10
-341.195313
 20
908.410156
 10
-341.195313
 20
928.410156
  0
LWPOLYLINE
  5
132
100
AcDbEntity
  8
LAYER22
370
    18
390
0
  6
Continuous
 62
     1
100
AcDbPolyline
 90
        2
 70
     0
 10
-336.195313
 20
908.410156
 10
-336.195313
 20
928.410156
  0
LWPOLYLINE
  5
133
100
AcDbEntity
  8
LAYER22
370
    18
390
0
  6
Continuous
 62
     1
100
AcDbPolyline
 90
        2
 70
     0
 10
-331.195313
 20
908.410156
 10
-331.195313
 20
928.410156
  0
LWPOLYLINE
  5
134
100
AcDbEntity
  8
LAYER22
370
    18
390
0
  6
Continuous
 62
     1
100
AcDbPolyline
 90
        2
 70
     0
 10
-326.195313
 20
908.410156
 10
-326.195313
 20
928.410156
  0
LWPOLYLINE
  5
135
100
AcDbEntity
  8
LAYER22
370
    18
390
0
  6
Continuous
 62
     1
100
AcDbPolyline
 90
        2
 70
     0
 10
-321.195313
 20
908.410156
 10
-321.195313
 20
928.410156
  0
LWPOLYLINE
  5
136
100
AcDbEntity
  8
LAYER22
370
    18
390
0
  6
Continuous
 62
     1
100
AcDbPolyline
 90
        2
 70
     0
 10
-316.195313
 20
908.410156
 10
-316.195313
 20
928.410156
  0
LWPOLYLINE
  5
137
100
AcDbEntity
  8
LAYER22
370
    18
390
0
  6
Continuous
 62
     1
100
AcDbPolyline
 90
        2
 70
     0
 10
-311.195313
 20
908.410156
 10
-311.195313
 20
928.410156
  0
LWPOLYLINE
  5
138
100
AcDbEntity
  8
LAYER22
370
    18
390
0
  6
Continuous
 62
     1
100
AcDbPolyline
 90
        2
 70
     0
 10
-306.195313
 20
908.410156
 10
-306.195313
 20
928.410156
  0
LWPOLYLINE
  5
139
100
AcDbEntity
  8
LAYER22
370
    18
390
0
  6
Continuous
 62
     1
100
AcDbPolyline
 90
        2
 70
     0
 10
-301.195313
 20
908.410156
 10
-301.195313
 20
928.410156
  0
LWPOLYLINE
  5
13A
100
AcDbEntity
  8
LAYER22
370
    18
390
0
  6
Continuous
 62
     1
100
AcDbPolyline
 90
        2
 70
     0
 10
-296.195313
 20
908.410156
 10
-296.195313
 20
928.410156
  0
LWPOLYLINE
  5
13B
100
AcDbEntity
  8
LAYER22
370
    18
390
0
  6
Continuous
 62
     1
100
AcDbPolyline
 90
        2
 70
     0
 10
-291.195313
 20
908.410156
 10
-291.195313
 20
928.410156
  0
LWPOLYLINE
  5
13C
100
AcDbEntity
  8
LAYER22
370
    18
390
0
  6
Continuous
 62
     1
100
AcDbPolyline
 90
        2
 70
     0
 10
-286.195313
 20
908.410156
 10
-286.195313
 20
928.410156
  0
LWPOLYLINE
  5
13D
100
AcDbEntity
  8
LAYER22
370
    18
390
0
  6
Continuous
 62
     1
100
AcDbPolyline
 90
        2
 70
     0
 10
-281.195313
 20
908.410156
 10
-281.195313
 20
928.410156
  0
LWPOLYLINE
  5
13E
100
AcDbEntity
  8
LAYER22
370
    18
390
0
  6
Continuous
 62
     1
100
AcDbPolyline
 90
        2
 70
     0
 10
-276.195313
 20
908.410156
 10
-276.195313
 20
928.410156
  0
LWPOLYLINE
  5
13F
100
AcDbEntity
  8
LAYER22
370
    18
390
0
  6
Continuous
 62
     1
100
AcDbPolyline
 90
        2
 70
     0
 10
-271.195313
 20
908.410156
 10
-271.195313
 20
928.410156
  0
LWPOLYLINE
  5
140
100
AcDbEntity
  8
LAYER22
370
    18
390
0
  6
Continuous
 62
     1
100
AcDbPolyline
 90
        2
 70
     0
 10
-266.195313
 20
908.410156
 10
-266.195313
 20
928.410156
  0
LWPOLYLINE
  5
141
100
AcDbEntity
  8
LAYER22
370
    18
390
0
  6
Continuous
 62
     1
100
AcDbPolyline
 90
        2
 70
     0
 10
-261.195313
 20
908.410156
 10
-261.195313
 20
928.410156
  0
LWPOLYLINE
  5
142
100
AcDbEntity
  8
LAYER22
370
    18
390
0
  6
Continuous
 62
     1
100
AcDbPolyline
 90
        2
 70
     0
 10
-256.195313
 20
908.410156
 10
-256.195313
 20
928.410156
  0
LWPOLYLINE
  5
143
100
AcDbEntity
  8
LAYER22
370
    18
390
0
  6
Continuous
 62
     1
100
AcDbPolyline
 90
        2
 70
     0
 10
-251.195313
 20
908.410156
 10
-251.195313
 20
928.410156
  0
LWPOLYLINE
  5
144
100
AcDbEntity
  8
LAYER22
370
    18
390
0
  6
Continuous
 62
     1
100
AcDbPolyline
 90
        2
 70
     0
 10
-246.195313
 20
908.410156
 10
-246.195313
 20
928.410156
  0
LWPOLYLINE
  5
145
100
AcDbEntity
  8
LAYER22
370
    18
390
0
  6
Continuous
 62
     1
100
AcDbPolyline
 90
        2
 70
     0
 10
-241.195313
 20
908.410156
 10
-241.195313
 20
928.410156
  0
LWPOLYLINE
  5
146
100
AcDbEntity
  8
LAYER22
370
    18
390
0
  6
Continuous
 62
     1
100
AcDbPolyline
 90
        2
 70
     0
 10
-236.195313
 20
908.410156
 10
-236.195313
 20
928.410156
  0
LWPOLYLINE
  5
147
100
AcDbEntity
  8
LAYER22
370
    18
390
0
  6
Continuous
 62
     1
100
AcDbPolyline
 90
        2
 70
     0
 10
-231.195313
 20
908.410156
 10
-231.195313
 20
928.410156
  0
LWPOLYLINE
  5
148
100
AcDbEntity
  8
LAYER22
370
    18
390
0
  6
Continuous
 62
     1
100
AcDbPolyline
 90
        2
 70
     0
 10
-226.195313
 20
908.410156
 10
-226.195313
 20
928.410156
  0
LWPOLYLINE
  5
149
100
AcDbEntity
  8
LAYER22
370
    18
390
0
  6
Continuous
 62
     1
100
AcDbPolyline
 90
        2
 70
     0
 10
-222.195313
 20
908.410156
 10
-222.195313
 20
928.410156
  0
LWPOLYLINE
  5
14A
100
AcDbEntity
  8
LAYER22
370
    18
390
0
  6
Continuous
 62
     1
100
AcDbPolyline
 90
        2
 70
     0
 10
-216.195313
 20
908.410156
 10
-216.195313
 20
928.410156
  0
LWPOLYLINE
  5
14B
100
AcDbEntity
  8
LAYER22
370
    18
390
0
  6
Continuous
 62
     1
100
AcDbPolyline
 90
        2
 70
     0
 10
-212.195313
 20
908.410156
 10
-212.195313
 20
928.410156
  0
LWPOLYLINE
  5
14C
100
AcDbEntity
  8
LAYER22
370
    18
390
0
  6
Continuous
 62
     1
100
AcDbPolyline
 90
        2
 70
     0
 10
-206.195313
 20
908.410156
 10
-206.195313
 20
928.410156
  0
LWPOLYLINE
  5
14D
100
AcDbEntity
  8
LAYER22
370
    18
390
0
  6
Continuous
 62
     1
100
AcDbPolyline
 90
        2
 70
     0
 10
-202.195313
 20
908.410156
 10
-202.195313
 20
928.410156
  0
LWPOLYLINE
  5
14E
100
AcDbEntity
  8
LAYER22
370
    18
390
0
  6
Continuous
 62
     1
100
AcDbPolyline
 90
        2
 70
     0
 10
-196.195313
 20
908.410156
 10
-196.195313
 20
928.410156
  0
LWPOLYLINE
  5
14F
100
AcDbEntity
  8
LAYER22
370
    18
390
0
  6
Continuous
 62
     1
100
AcDbPolyline
 90
        2
 70
     0
 10
-192.195313
 20
908.410156
 10
-192.195313
 20
928.410156
  0
LWPOLYLINE
  5
150
100
AcDbEntity
  8
LAYER22
370
    18
390
0
  6
Continuous
 62
     1
100
AcDbPolyline
 90
        2
 70
     0
 10
-186.195313
 20
908.410156
 10
-186.195313
 20
928.410156
  0
LWPOLYLINE
  5
151
100
AcDbEntity
  8
LAYER22
370
    18
390
0
  6
Continuous
 62
     1
100
AcDbPolyline
 90
        2
 70
     0
 10
-182.195313
 20
908.410156
 10
-182.195313
 20
928.410156
  0
LWPOLYLINE
  5
152
100
AcDbEntity
  8
LAYER22
370
    18
390
0
  6
Continuous
 62
     1
100
AcDbPolyline
 90
        2
 70
     0
 10
-176.195313
 20
908.410156
 10
-176.195313
 20
928.410156
  0
LWPOLYLINE
  5
153
100
AcDbEntity
  8
LAYER22
370
    18
390
0
  6
Continuous
 62
     1
100
AcDbPolyline
 90
        2
 70
     0
 10
-172.195313
 20
908.410156
 10
-172.195313
 20
928.410156
  0
LWPOLYLINE
  5
154
100
AcDbEntity
  8
LAYER22
370
    18
390
0
  6
Continuous
 62
     1
100
AcDbPolyline
 90
        2
 70
     0
 10
-166.195313
 20
908.410156
 10
-166.195313
 20
928.410156
  0
LWPOLYLINE
  5
155
100
AcDbEntity
  8
LAYER22
370
    18
390
0
  6
Continuous
 62
     1
100
AcDbPolyline
 90
        2
 70
     0
 10
-162.195313
 20
908.410156
 10
-162.195313
 20
928.410156
  0
LWPOLYLINE
  5
156
100
AcDbEntity
  8
LAYER22
370
    18
390
0
  6
Continuous
 62
     1
100
AcDbPolyline
 90
        2
 70
     0
 10
-156.195313
 20
908.410156
 10
-156.195313
 20
928.410156
  0
LWPOLYLINE
  5
157
100
AcDbEntity
  8
LAYER22
370
    18
390
0
  6
Continuous
 62
     1
100
AcDbPolyline
 90
        2
 70
     0
 10
-152.195313
 20
908.410156
 10
-152.195313
 20
928.410156
  0
LWPOLYLINE
  5
158
100
AcDbEntity
  8
LAYER22
370
    18
390
0
  6
Continuous
 62
     1
100
AcDbPolyline
 90
        2
 70
     0
 10
-146.195313
 20
908.410156
 10
-146.195313
 20
928.410156
  0
LWPOLYLINE
  5
159
100
AcDbEntity
  8
LAYER22
370
    18
390
0
  6
Continuous
 62
     1
100
AcDbPolyline
 90
        2
 70
     0
 10
-142.195313
 20
908.410156
 10
-142.195313
 20
928.410156
  0
LWPOLYLINE
  5
15A
100
AcDbEntity
  8
LAYER22
370
    18
390
0
  6
Continuous
 62
     1
100
AcDbPolyline
 90
        2
 70
     0
 10
-136.195313
 20
908.410156
 10
-136.195313
 20
928.410156
  0
LWPOLYLINE
  5
15B
100
AcDbEntity
  8
LAYER22
370
    18
390
0
  6
Continuous
 62
     1
100
AcDbPolyline
 90
        2
 70
     0
 10
-132.195313
 20
908.410156
 10
-132.195313
 20
928.410156
  0
LWPOLYLINE
  5
15C
100
AcDbEntity
  8
LAYER22
370
    18
390
0
  6
Continuous
 62
     1
100
AcDbPolyline
 90
        2
 70
     0
 10
-126.195313
 20
908.410156
 10
-126.195313
 20
928.410156
  0
LWPOLYLINE
  5
15D
100
AcDbEntity
  8
LAYER22
370
    18
390
0
  6
Continuous
 62
     1
100
AcDbPolyline
 90
        2
 70
     0
 10
-122.195313
 20
908.410156
 10
-122.195313
 20
928.410156
  0
LWPOLYLINE
  5
15E
100
AcDbEntity
  8
LAYER22
370
    18
390
0
  6
Continuous
 62
     1
100
AcDbPolyline
 90
        2
 70
     0
 10
-116.195313
 20
908.410156
 10
-116.195313
 20
928.410156
  0
LWPOLYLINE
  5
15F
100
AcDbEntity
  8
LAYER22
370
    18
390
0
  6
Continuous
 62
     1
100
AcDbPolyline
 90
        2
 70
     0
 10
-112.195313
 20
908.410156
 10
-112.195313
 20
928.410156
  0
LWPOLYLINE
  5
160
100
AcDbEntity
  8
LAYER22
370
    18
390
0
  6
Continuous
 62
     1
100
AcDbPolyline
 90
        2
 70
     0
 10
-106.195313
 20
908.410156
 10
-106.195313
 20
928.410156
  0
LWPOLYLINE
  5
161
100
AcDbEntity
  8
LAYER22
370
    18
390
0
  6
Continuous
 62
     1
100
AcDbPolyline
 90
        2
 70
     0
 10
-102.195313
 20
908.410156
 10
-102.195313
 20
928.410156
  0
LWPOLYLINE
  5
162
100
AcDbEntity
  8
LAYER22
370
    18
390
0
  6
Continuous
 62
     1
100
AcDbPolyline
 90
        2
 70
     0
 10
-96.195313
 20
908.410156
 10
-96.195313
 20
928.410156
  0
LWPOLYLINE
  5
163
100
AcDbEntity
  8
LAYER22
370
    18
390
0
  6
Continuous
 62
     1
100
AcDbPolyline
 90
        2
 70
     0
 10
-92.195313
 20
908.410156
 10
-92.195313
 20
928.410156
  0
LWPOLYLINE
  5
164
100
AcDbEntity
  8
LAYER22
370
    18
390
0
  6
Continuous
 62
     1
100
AcDbPolyline
 90
        2
 70
     0
 10
-86.195313
 20
908.410156
 10
-86.195313
 20
928.410156
  0
LWPOLYLINE
  5
165
100
AcDbEntity
  8
LAYER22
370
    18
390
0
  6
Continuous
 62
     1
100
AcDbPolyline
 90
        2
 70
     0
 10
-82.195313
 20
908.410156
 10
-82.195313
 20
928.410156
  0
LWPOLYLINE
  5
166
100
AcDbEntity
  8
LAYER22
370
    18
390
0
  6
Continuous
 62
     1
100
AcDbPolyline
 90
        2
 70
     0
 10
-76.195313
 20
908.410156
 10
-76.195313
 20
928.410156
  0
LWPOLYLINE
  5
167
100
AcDbEntity
  8
LAYER22
370
    18
390
0
  6
Continuous
 62
     1
100
AcDbPolyline
 90
        2
 70
     0
 10
-72.195313
 20
908.410156
 10
-72.195313
 20
928.410156
  0
LWPOLYLINE
  5
168
100
AcDbEntity
  8
LAYER22
370
    18
390
0
  6
Continuous
 62
     1
100
AcDbPolyline
 90
        2
 70
     0
 10
-66.195313
 20
908.410156
 10
-66.195313
 20
928.410156
  0
LWPOLYLINE
  5
169
100
AcDbEntity
  8
LAYER22
370
    18
390
0
  6
Continuous
 62
     1
100
AcDbPolyline
 90
        2
 70
     0
 10
-62.195313
 20
908.410156
 10
-62.195313
 20
928.410156
  0
LWPOLYLINE
  5
16A
100
AcDbEntity
  8
LAYER22
370
    18
390
0
  6
Continuous
 62
     1
100
AcDbPolyline
 90
        2
 70
     0
 10
-56.195313
 20
908.410156
 10
-56.195313
 20
928.410156
  0
LWPOLYLINE
  5
16B
100
AcDbEntity
  8
LAYER22
370
    18
390
0
  6
Continuous
 62
     1
100
AcDbPolyline
 90
        2
 70
     0
 10
-52.195313
 20
908.410156
 10
-52.195313
 20
928.410156
  0
LWPOLYLINE
  5
16C
100
AcDbEntity
  8
LAYER22
370
    18
390
0
  6
Continuous
 62
     1
100
AcDbPolyline
 90
        2
 70
     0
 10
-46.195313
 20
908.410156
 10
-46.195313
 20
928.410156
  0
LWPOLYLINE
  5
16D
100
AcDbEntity
  8
LAYER22
370
    18
390
0
  6
Continuous
 62
     1
100
AcDbPolyline
 90
        2
 70
     0
 10
-42.195313
 20
908.410156
 10
-42.195313
 20
928.410156
  0
LWPOLYLINE
  5
16E
100
AcDbEntity
  8
LAYER22
370
    18
390
0
  6
Continuous
 62
     1
100
AcDbPolyline
 90
        2
 70
     0
 10
-36.195313
 20
908.410156
 10
-36.195313
 20
928.410156
  0
LWPOLYLINE
  5
16F
100
AcDbEntity
  8
LAYER22
370
    18
390
0
  6
Continuous
 62
     1
100
AcDbPolyline
 90
        2
 70
     0
 10
-32.195313
 20
908.410156
 10
-32.195313
 20
928.410156
  0
LWPOLYLINE
  5
170
100
AcDbEntity
  8
LAYER22
370
    18
390
0
  6
Continuous
 62
     1
100
AcDbPolyline
 90
        2
 70
     0
 10
-26.195313
 20
908.410156
 10
-26.195313
 20
928.410156
  0
LWPOLYLINE
  5
171
100
AcDbEntity
  8
LAYER22
370
    18
390
0
  6
Continuous
 62
     1
100
AcDbPolyline
 90
        2
 70
     0
 10
-22.195313
 20
908.410156
 10
-22.195313
 20
928.410156
  0
LWPOLYLINE
  5
172
100
AcDbEntity
  8
LAYER22
370
    18
390
0
  6
Continuous
 62
     1
100
AcDbPolyline
 90
        2
 70
     0
 10
-16.195313
 20
908.410156
 10
-16.195313
 20
928.410156
  0
LWPOLYLINE
  5
173
100
AcDbEntity
  8
LAYER22
370
    18
390
0
  6
Continuous
 62
     1
100
AcDbPolyline
 90
        2
 70
     0
 10
-12.195313
 20
908.410156
 10
-12.195313
 20
928.410156
  0
LWPOLYLINE
  5
174
100
AcDbEntity
  8
LAYER22
370
    18
390
0
  6
Continuous
 62
     1
100
AcDbPolyline
 90
        2
 70
     0
 10
-6.195313
 20
908.410156
 10
-6.195313
 20
928.410156
  0
LWPOLYLINE
  5
175
100
AcDbEntity
  8
LAYER22
370
    18
390
0
  6
Continuous
 62
     1
100
AcDbPolyline
 90
        2
 70
     0
 10
-2.195313
 20
908.410156
 10
-2.195313
 20
928.410156
  0
LWPOLYLINE
  5
176
100
AcDbEntity
  8
LAYER22
370
    18
390
0
  6
Continuous
 62
     1
100
AcDbPolyline
 90
        2
 70
     0
 10
3.804688
 20
908.410156
 10
3.804688
 20
928.410156
  0
LWPOLYLINE
  5
177
100
AcDbEntity
  8
LAYER22
370
    18
390
0
  6
Continuous
 62
     1
100
AcDbPolyline
 90
        2
 70
     0
 10
7.804688
 20
908.410156
 10
7.804688
 20
928.410156
  0
LWPOLYLINE
  5
178
100
AcDbEntity
  8
LAYER22
370
    18
390
0
  6
Continuous
 62
     1
100
AcDbPolyline
 90
        2
 70
     0
 10
13.804688
 20
908.410156
 10
13.804688
 20
928.410156
  0
LWPOLYLINE
  5
179
100
AcDbEntity
  8
LAYER22
370
    18
390
0
  6
Continuous
 62
     1
100
AcDbPolyline
 90
        2
 70
     0
 10
21.804688
 20
908.410156
 10
21.804688
 20
928.410156
  0
LWPOLYLINE
  5
17A
100
AcDbEntity
  8
LAYER22
370
    18
390
0
  6
Continuous
 62
     1
100
AcDbPolyline
 90
        2
 70
     0
 10
25.804688
 20
908.410156
 10
25.804688
 20
928.410156
  0
LWPOLYLINE
  5
17B
100
AcDbEntity
  8
LAYER22
370
    18
390
0
  6
Continuous
 62
     1
100
AcDbPolyline
 90
        2
 70
     0
 10
31.804688
 20
908.410156
 10
31.804688
 20
928.410156
  0
LWPOLYLINE
  5
17C
100
AcDbEntity
  8
LAYER22
370
    18
390
0
  6
Continuous
 62
     1
100
AcDbPolyline
 90
        2
 70
     0
 10
35.804688
 20
908.410156
 10
35.804688
 20
928.410156
  0
LWPOLYLINE
  5
17D
100
AcDbEntity
  8
LAYER22
370
    18
390
0
  6
Continuous
 62
     1
100
AcDbPolyline
 90
        2
 70
     0
 10
41.804688
 20
908.410156
 10
41.804688
 20
928.410156
  0
LWPOLYLINE
  5
17E
100
AcDbEntity
  8
LAYER22
370
    18
390
0
  6
Continuous
 62
     1
100
AcDbPolyline
 90
        2
 70
     0
 10
45.804688
 20
908.410156
 10
45.804688
 20
928.410156
  0
LWPOLYLINE
  5
17F
100
AcDbEntity
  8
LAYER22
370
    18
390
0
  6
Continuous
 62
     1
100
AcDbPolyline
 90
        2
 70
     0
 10
51.804688
 20
908.410156
 10
51.804688
 20
928.410156
  0
LWPOLYLINE
  5
180
100
AcDbEntity
  8
LAYER22
370
    18
390
0
  6
Continuous
 62
     1
100
AcDbPolyline
 90
        2
 70
     0
 10
55.804688
 20
908.410156
 10
55.804688
 20
928.410156
  0
LWPOLYLINE
  5
181
100
AcDbEntity
  8
LAYER22
370
    18
390
0
  6
Continuous
 62
     1
100
AcDbPolyline
 90
        2
 70
     0
 10
61.804688
 20
908.410156
 10
61.804688
 20
928.410156
  0
LWPOLYLINE
  5
182
100
AcDbEntity
  8
LAYER22
370
    18
390
0
  6
Continuous
 62
     1
100
AcDbPolyline
 90
        2
 70
     0
 10
65.804688
 20
908.410156
 10
65.804688
 20
928.410156
  0
LWPOLYLINE
  5
183
100
AcDbEntity
  8
LAYER22
370
    18
390
0
  6
Continuous
 62
     1
100
AcDbPolyline
 90
        2
 70
     0
 10
71.804688
 20
908.410156
 10
71.804688
 20
928.410156
  0
LWPOLYLINE
  5
184
100
AcDbEntity
  8
LAYER22
370
    18
390
0
  6
Continuous
 62
     1
100
AcDbPolyline
 90
        2
 70
     0
 10
75.804688
 20
908.410156
 10
75.804688
 20
928.410156
  0
LWPOLYLINE
  5
185
100
AcDbEntity
  8
LAYER22
370
    18
390
0
  6
Continuous
 62
     1
100
AcDbPolyline
 90
        2
 70
     0
 10
81.804688
 20
908.410156
 10
81.804688
 20
928.410156
  0
LWPOLYLINE
  5
186
100
AcDbEntity
  8
LAYER22
370
    18
390
0
  6
Continuous
 62
     1
100
AcDbPolyline
 90
        2
 70
     0
 10
85.804688
 20
908.410156
 10
85.804688
 20
928.410156
  0
LWPOLYLINE
  5
187
100
AcDbEntity
  8
LAYER22
370
    18
390
0
  6
Continuous
 62
     1
100
AcDbPolyline
 90
        2
 70
     0
 10
91.804688
 20
908.410156
 10
91.804688
 20
928.410156
  0
LWPOLYLINE
  5
188
100
AcDbEntity
  8
LAYER22
370
    18
390
0
  6
Continuous
 62
     1
100
AcDbPolyline
 90
        2
 70
     0
 10
95.804688
 20
908.410156
 10
95.804688
 20
928.410156
  0
LWPOLYLINE
  5
189
100
AcDbEntity
  8
LAYER22
370
    18
390
0
  6
Continuous
 62
     1
100
AcDbPolyline
 90
        2
 70
     0
 10
101.804688
 20
908.410156
 10
101.804688
 20
928.410156
  0
LWPOLYLINE
  5
18A
100
AcDbEntity
  8
LAYER22
370
    18
390
0
  6
Continuous
 62
     1
100
AcDbPolyline
 90
        2
 70
     0
 10
105.804688
 20
908.410156
 10
105.804688
 20
928.410156
  0
LWPOLYLINE
  5
18B
100
AcDbEntity
  8
LAYER22
370
    18
390
0
  6
Continuous
 62
     1
100
AcDbPolyline
 90
        2
 70
     0
 10
111.804688
 20
908.410156
 10
111.804688
 20
928.410156
  0
LWPOLYLINE
  5
18C
100
AcDbEntity
  8
LAYER22
370
    18
390
0
  6
Continuous
 62
     1
100
AcDbPolyline
 90
        2
 70
     0
 10
115.804688
 20
908.410156
 10
115.804688
 20
928.410156
  0
LWPOLYLINE
  5
18D
100
AcDbEntity
  8
LAYER22
370
    18
390
0
  6
Continuous
 62
     1
100
AcDbPolyline
 90
        2
 70
     0
 10
121.804688
 20
908.410156
 10
121.804688
 20
928.410156
  0
LWPOLYLINE
  5
18E
100
AcDbEntity
  8
LAYER22
370
    18
390
0
  6
Continuous
 62
     1
100
AcDbPolyline
 90
        2
 70
     0
 10
125.804688
 20
908.410156
 10
125.804688
 20
928.410156
  0
LWPOLYLINE
  5
18F
100
AcDbEntity
  8
LAYER22
370
    18
390
0
  6
Continuous
 62
     1
100
AcDbPolyline
 90
        2
 70
     0
 10
131.804688
 20
908.410156
 10
131.804688
 20
928.410156
  0
LWPOLYLINE
  5
190
100
AcDbEntity
  8
LAYER22
370
    18
390
0
  6
Continuous
 62
     1
100
AcDbPolyline
 90
        2
 70
     0
 10
135.804688
 20
908.410156
 10
135.804688
 20
928.410156
  0
LWPOLYLINE
  5
191
100
AcDbEntity
  8
LAYER22
370
    18
390
0
  6
Continuous
 62
     1
100
AcDbPolyline
 90
        2
 70
     0
 10
141.804688
 20
908.410156
 10
141.804688
 20
928.410156
  0
LWPOLYLINE
  5
192
100
AcDbEntity
  8
LAYER22
370
    18
390
0
  6
Continuous
 62
     1
100
AcDbPolyline
 90
        2
 70
     0
 10
145.804688
 20
908.410156
 10
145.804688
 20
928.410156
  0
LWPOLYLINE
  5
193
100
AcDbEntity
  8
LAYER22
370
    18
390
0
  6
Continuous
 62
     1
100
AcDbPolyline
 90
        2
 70
     0
 10
151.804688
 20
908.410156
 10
151.804688
 20
928.410156
  0
LWPOLYLINE
  5
194
100
AcDbEntity
  8
LAYER22
370
    18
390
0
  6
Continuous
 62
     1
100
AcDbPolyline
 90
        2
 70
     0
 10
155.804688
 20
908.410156
 10
155.804688
 20
928.410156
  0
LWPOLYLINE
  5
195
100
AcDbEntity
  8
LAYER22
370
    18
390
0
  6
Continuous
 62
     1
100
AcDbPolyline
 90
        2
 70
     0
 10
161.804688
 20
908.410156
 10
161.804688
 20
928.410156
  0
LWPOLYLINE
  5
196
100
AcDbEntity
  8
LAYER22
370
    18
390
0
  6
Continuous
 62
     1
100
AcDbPolyline
 90
        2
 70
     0
 10
165.804688
 20
908.410156
 10
165.804688
 20
928.410156
  0
LWPOLYLINE
  5
197
100
AcDbEntity
  8
LAYER22
370
    18
390
0
  6
Continuous
 62
     1
100
AcDbPolyline
 90
        2
 70
     0
 10
171.804688
 20
908.410156
 10
171.804688
 20
928.410156
  0
LWPOLYLINE
  5
198
100
AcDbEntity
  8
LAYER22
370
    18
390
0
  6
Continuous
 62
     1
100
AcDbPolyline
 90
        2
 70
     0
 10
175.804688
 20
908.410156
 10
175.804688
 20
928.410156
  0
LWPOLYLINE
  5
199
100
AcDbEntity
  8
LAYER22
370
    18
390
0
  6
Continuous
 62
     1
100
AcDbPolyline
 90
        2
 70
     0
 10
181.804688
 20
908.410156
 10
181.804688
 20
928.410156
  0
LWPOLYLINE
  5
19A
100
AcDbEntity
  8
LAYER22
370
    18
390
0
  6
Continuous
 62
     1
100
AcDbPolyline
 90
        2
 70
     0
 10
185.804688
 20
908.410156
 10
185.804688
 20
928.410156
  0
LWPOLYLINE
  5
19B
100
AcDbEntity
  8
LAYER22
370
    18
390
0
  6
Continuous
 62
     1
100
AcDbPolyline
 90
        2
 70
     0
 10
191.804688
 20
908.410156
 10
191.804688
 20
928.410156
  0
LWPOLYLINE
  5
19C
100
AcDbEntity
  8
LAYER22
370
    18
390
0
  6
Continuous
 62
     1
100
AcDbPolyline
 90
        2
 70
     0
 10
195.804688
 20
908.410156
 10
195.804688
 20
928.410156
  0
LWPOLYLINE
  5
19D
100
AcDbEntity
  8
LAYER22
370
    18
390
0
  6
Continuous
 62
     1
100
AcDbPolyline
 90
        2
 70
     0
 10
201.804688
 20
908.410156
 10
201.804688
 20
928.410156
  0
LWPOLYLINE
  5
19E
100
AcDbEntity
  8
LAYER22
370
    18
390
0
  6
Continuous
 62
     1
100
AcDbPolyline
 90
        2
 70
     0
 10
205.804688
 20
908.410156
 10
205.804688
 20
928.410156
  0
LWPOLYLINE
  5
19F
100
AcDbEntity
  8
LAYER22
370
    18
390
0
  6
Continuous
 62
     1
100
AcDbPolyline
 90
        2
 70
     0
 10
211.804688
 20
908.410156
 10
211.804688
 20
928.410156
  0
LWPOLYLINE
  5
1A0
100
AcDbEntity
  8
LAYER22
370
    18
390
0
  6
Continuous
 62
     1
100
AcDbPolyline
 90
        2
 70
     0
 10
215.804688
 20
908.410156
 10
215.804688
 20
928.410156
  0
LWPOLYLINE
  5
1A1
100
AcDbEntity
  8
LAYER22
370
    18
390
0
  6
Continuous
 62
     1
100
AcDbPolyline
 90
        2
 70
     0
 10
221.804688
 20
908.410156
 10
221.804688
 20
928.410156
  0
LWPOLYLINE
  5
1A2
100
AcDbEntity
  8
LAYER22
370
    18
390
0
  6
Continuous
 62
     1
100
AcDbPolyline
 90
        2
 70
     0
 10
225.804688
 20
908.410156
 10
225.804688
 20
928.410156
  0
LWPOLYLINE
  5
1A3
100
AcDbEntity
  8
LAYER22
370
    18
390
0
  6
Continuous
 62
     1
100
AcDbPolyline
 90
        2
 70
     0
 10
231.804688
 20
908.410156
 10
231.804688
 20
928.410156
  0
LWPOLYLINE
  5
1A4
100
AcDbEntity
  8
LAYER22
370
    18
390
0
  6
Continuous
 62
     1
100
AcDbPolyline
 90
        2
 70
     0
 10
235.804688
 20
908.410156
 10
235.804688
 20
928.410156
  0
LWPOLYLINE
  5
1A5
100
AcDbEntity
  8
LAYER22
370
    18
390
0
  6
Continuous
 62
     1
100
AcDbPolyline
 90
        2
 70
     0
 10
241.804688
 20
908.410156
 10
241.804688
 20
928.410156
  0
LWPOLYLINE
  5
1A6
100
AcDbEntity
  8
LAYER22
370
    18
390
0
  6
Continuous
 62
     1
100
AcDbPolyline
 90
        2
 70
     0
 10
245.804688
 20
908.410156
 10
245.804688
 20
928.410156
  0
LWPOLYLINE
  5
1A7
100
AcDbEntity
  8
LAYER22
370
    18
390
0
  6
Continuous
 62
     1
100
AcDbPolyline
 90
        2
 70
     0
 10
251.804688
 20
908.410156
 10
251.804688
 20
928.410156
  0
LWPOLYLINE
  5
1A8
100
AcDbEntity
  8
LAYER22
370
    18
390
0
  6
Continuous
 62
     1
100
AcDbPolyline
 90
        2
 70
     0
 10
255.804688
 20
908.410156
 10
255.804688
 20
928.410156
  0
LWPOLYLINE
  5
1A9
100
AcDbEntity
  8
LAYER22
370
    18
390
0
  6
Continuous
 62
     1
100
AcDbPolyline
 90
        2
 70
     0
 10
260.804688
 20
908.410156
 10
260.804688
 20
928.410156
  0
LWPOLYLINE
  5
1AA
100
AcDbEntity
  8
LAYER22
370
    18
390
0
  6
Continuous
 62
     1
100
AcDbPolyline
 90
        2
 70
     0
 10
265.804688
 20
908.410156
 10
265.804688
 20
928.410156
  0
LWPOLYLINE
  5
1AB
100
AcDbEntity
  8
LAYER22
370
    18
390
0
  6
Continuous
 62
     1
100
AcDbPolyline
 90
        2
 70
     0
 10
270.804688
 20
908.410156
 10
270.804688
 20
928.410156
  0
LWPOLYLINE
  5
1AC
100
AcDbEntity
  8
LAYER22
370
    18
390
0
  6
Continuous
 62
     1
100
AcDbPolyline
 90
        2
 70
     0
 10
275.804688
 20
908.410156
 10
275.804688
 20
928.410156
  0
LWPOLYLINE
  5
1AD
100
AcDbEntity
  8
LAYER22
370
    18
390
0
  6
Continuous
 62
     1
100
AcDbPolyline
 90
        2
 70
     0
 10
280.804688
 20
908.410156
 10
280.804688
 20
928.410156
  0
LWPOLYLINE
  5
1AE
100
AcDbEntity
  8
LAYER22
370
    18
390
0
  6
Continuous
 62
     1
100
AcDbPolyline
 90
        2
 70
     0
 10
285.804688
 20
908.410156
 10
285.804688
 20
928.410156
  0
LWPOLYLINE
  5
1AF
100
AcDbEntity
  8
LAYER22
370
    18
390
0
  6
Continuous
 62
     1
100
AcDbPolyline
 90
        2
 70
     0
 10
290.804688
 20
908.410156
 10
290.804688
 20
928.410156
  0
LWPOLYLINE
  5
1B0
100
AcDbEntity
  8
LAYER22
370
    18
390
0
  6
Continuous
 62
     1
100
AcDbPolyline
 90
        2
 70
     0
 10
295.804688
 20
908.410156
 10
295.804688
 20
928.410156
  0
LWPOLYLINE
  5
1B1
100
AcDbEntity
  8
LAYER22
370
    18
390
0
  6
Continuous
 62
     1
100
AcDbPolyline
 90
        2
 70
     0
 10
300.804688
 20
908.410156
 10
300.804688
 20
928.410156
  0
LWPOLYLINE
  5
1B2
100
AcDbEntity
  8
LAYER22
370
    18
390
0
  6
Continuous
 62
     1
100
AcDbPolyline
 90
        2
 70
     0
 10
305.804688
 20
908.410156
 10
305.804688
 20
928.410156
  0
LWPOLYLINE
  5
1B3
100
AcDbEntity
  8
LAYER22
370
    18
390
0
  6
Continuous
 62
     1
100
AcDbPolyline
 90
        2
 70
     0
 10
310.804688
 20
908.410156
 10
310.804688
 20
928.410156
  0
LWPOLYLINE
  5
1B4
100
AcDbEntity
  8
LAYER22
370
    18
390
0
  6
Continuous
 62
     1
100
AcDbPolyline
 90
        2
 70
     0
 10
315.804688
 20
908.410156
 10
315.804688
 20
928.410156
  0
LWPOLYLINE
  5
1B5
100
AcDbEntity
  8
LAYER22
370
    18
390
0
  6
Continuous
 62
     1
100
AcDbPolyline
 90
        2
 70
     0
 10
320.804688
 20
908.410156
 10
320.804688
 20
928.410156
  0
LWPOLYLINE
  5
1B6
100
AcDbEntity
  8
LAYER22
370
    18
390
0
  6
Continuous
 62
     1
100
AcDbPolyline
 90
        2
 70
     0
 10
325.804688
 20
908.410156
 10
325.804688
 20
928.410156
  0
LWPOLYLINE
  5
1B7
100
AcDbEntity
  8
LAYER22
370
    18
390
0
  6
Continuous
 62
     1
100
AcDbPolyline
 90
        2
 70
     0
 10
330.804688
 20
908.410156
 10
330.804688
 20
928.410156
  0
LWPOLYLINE
  5
1B8
100
AcDbEntity
  8
LAYER22
370
    18
390
0
  6
Continuous
 62
     1
100
AcDbPolyline
 90
        2
 70
     0
 10
335.804688
 20
908.410156
 10
335.804688
 20
928.410156
  0
LWPOLYLINE
  5
1B9
100
AcDbEntity
  8
LAYER22
370
    18
390
0
  6
Continuous
 62
     1
100
AcDbPolyline
 90
        2
 70
     0
 10
340.804688
 20
908.410156
 10
340.804688
 20
928.410156
  0
LWPOLYLINE
  5
1BA
100
AcDbEntity
  8
LAYER22
370
    18
390
0
  6
Continuous
 62
     1
100
AcDbPolyline
 90
        2
 70
     0
 10
345.804688
 20
908.410156
 10
345.804688
 20
928.410156
  0
LWPOLYLINE
  5
1BB
100
AcDbEntity
  8
LAYER22
370
    18
390
0
  6
Continuous
 62
     1
100
AcDbPolyline
 90
        2
 70
     0
 10
350.804688
 20
908.410156
 10
350.804688
 20
928.410156
  0
LWPOLYLINE
  5
1BC
100
AcDbEntity
  8
LAYER22
370
    18
390
0
  6
Continuous
 62
     1
100
AcDbPolyline
 90
        2
 70
     0
 10
355.804688
 20
908.410156
 10
355.804688
 20
928.410156
  0
LWPOLYLINE
  5
1BD
100
AcDbEntity
  8
LAYER22
370
    18
390
0
  6
Continuous
 62
     1
100
AcDbPolyline
 90
        2
 70
     0
 10
360.804688
 20
908.410156
 10
360.804688
 20
928.410156
  0
LWPOLYLINE
  5
1BE
100
AcDbEntity
  8
LAYER22
370
    18
390
0
  6
Continuous
 62
     1
100
AcDbPolyline
 90
        2
 70
     0
 10
365.804688
 20
908.410156
 10
365.804688
 20
928.410156
  0
LWPOLYLINE
  5
1BF
100
AcDbEntity
  8
LAYER22
370
    18
390
0
  6
Continuous
 62
     1
100
AcDbPolyline
 90
        2
 70
     0
 10
370.804688
 20
908.410156
 10
370.804688
 20
928.410156
  0
LWPOLYLINE
  5
1C0
100
AcDbEntity
  8
LAYER22
370
    18
390
0
  6
Continuous
 62
     1
100
AcDbPolyline
 90
        2
 70
     0
 10
375.804688
 20
908.410156
 10
375.804688
 20
928.410156
  0
LWPOLYLINE
  5
1C1
100
AcDbEntity
  8
LAYER22
370
    18
390
0
  6
Continuous
 62
     1
100
AcDbPolyline
 90
        2
 70
     0
 10
380.804688
 20
908.410156
 10
380.804688
 20
928.410156
  0
LWPOLYLINE
  5
1C2
100
AcDbEntity
  8
LAYER22
370
    18
390
0
  6
Continuous
 62
     1
100
AcDbPolyline
 90
        2
 70
     0
 10
385.804688
 20
908.410156
 10
385.804688
 20
928.410156
  0
LWPOLYLINE
  5
1C3
100
AcDbEntity
  8
LAYER22
370
    18
390
0
  6
Continuous
 62
     1
100
AcDbPolyline
 90
        2
 70
     0
 10
390.804688
 20
908.410156
 10
390.804688
 20
928.410156
  0
LWPOLYLINE
  5
1C4
100
AcDbEntity
  8
LAYER22
370
    18
390
0
  6
Continuous
 62
     1
100
AcDbPolyline
 90
        2
 70
     0
 10
395.804688
 20
908.410156
 10
395.804688
 20
928.410156
  0
LWPOLYLINE
  5
1C5
100
AcDbEntity
  8
LAYER22
370
    18
390
0
  6
Continuous
 62
     1
100
AcDbPolyline
 90
        2
 70
     0
 10
400.804688
 20
908.410156
 10
400.804688
 20
928.410156
  0
LWPOLYLINE
  5
1C6
100
AcDbEntity
  8
LAYER22
370
    18
390
0
  6
Continuous
 62
     1
100
AcDbPolyline
 90
        2
 70
     0
 10
405.804688
 20
908.410156
 10
405.804688
 20
928.410156
  0
LWPOLYLINE
  5
1C7
100
AcDbEntity
  8
LAYER22
370
    18
390
0
  6
Continuous
 62
     1
100
AcDbPolyline
 90
        2
 70
     0
 10
410.804688
 20
908.410156
 10
410.804688
 20
928.410156
  0
LWPOLYLINE
  5
1C8
100
AcDbEntity
  8
LAYER22
370
    18
390
0
  6
Continuous
 62
     1
100
AcDbPolyline
 90
        2
 70
     0
 10
415.804688
 20
908.410156
 10
415.804688
 20
928.410156
  0
LWPOLYLINE
  5
1C9
100
AcDbEntity
  8
LAYER22
370
    18
390
0
  6
Continuous
 62
     1
100
AcDbPolyline
 90
        2
 70
     0
 10
420.804688
 20
908.410156
 10
420.804688
 20
928.410156
  0
LWPOLYLINE
  5
1CA
100
AcDbEntity
  8
LAYER22
370
    18
390
0
  6
Continuous
 62
     1
100
AcDbPolyline
 90
        2
 70
     0
 10
425.804688
 20
908.410156
 10
425.804688
 20
928.410156
  0
LWPOLYLINE
  5
1CB
100
AcDbEntity
  8
LAYER22
370
    18
390
0
  6
Continuous
 62
     1
100
AcDbPolyline
 90
        2
 70
     0
 10
430.804688
 20
908.410156
 10
430.804688
 20
928.410156
  0
LWPOLYLINE
  5
1CC
100
AcDbEntity
  8
LAYER22
370
    18
390
0
  6
Continuous
 62
     1
100
AcDbPolyline
 90
        2
 70
     0
 10
435.804688
 20
908.410156
 10
435.804688
 20
928.410156
  0
LWPOLYLINE
  5
1CD
100
AcDbEntity
  8
LAYER22
370
    18
390
0
  6
Continuous
 62
     1
100
AcDbPolyline
 90
        2
 70
     0
 10
440.804688
 20
908.410156
 10
440.804688
 20
928.410156
  0
LWPOLYLINE
  5
1CE
100
AcDbEntity
  8
LAYER22
370
    18
390
0
  6
Continuous
 62
     1
100
AcDbPolyline
 90
        2
 70
     0
 10
445.804688
 20
908.410156
 10
445.804688
 20
928.410156
  0
LWPOLYLINE
  5
1CF
100
AcDbEntity
  8
LAYER22
370
    18
390
0
  6
Continuous
 62
     1
100
AcDbPolyline
 90
        2
 70
     0
 10
450.804688
 20
908.410156
 10
450.804688
 20
928.410156
  0
LWPOLYLINE
  5
1D0
100
AcDbEntity
  8
LAYER22
370
    18
390
0
  6
Continuous
 62
     1
100
AcDbPolyline
 90
        2
 70
     0
 10
455.804688
 20
908.410156
 10
455.804688
 20
928.410156
  0
LWPOLYLINE
  5
1D1
100
AcDbEntity
  8
LAYER22
370
    18
390
0
  6
Continuous
 62
     1
100
AcDbPolyline
 90
        2
 70
     0
 10
460.804688
 20
908.410156
 10
460.804688
 20
928.410156
  0
LWPOLYLINE
  5
1D2
100
AcDbEntity
  8
LAYER22
370
    18
390
0
  6
Continuous
 62
     1
100
AcDbPolyline
 90
        2
 70
     0
 10
465.804688
 20
908.410156
 10
465.804688
 20
928.410156
  0
LWPOLYLINE
  5
1D3
100
AcDbEntity
  8
LAYER22
370
    18
390
0
  6
Continuous
 62
     1
100
AcDbPolyline
 90
        2
 70
     0
 10
470.804688
 20
908.410156
 10
470.804688
 20
928.410156
  0
LWPOLYLINE
  5
1D4
100
AcDbEntity
  8
LAYER22
370
    18
390
0
  6
Continuous
 62
     1
100
AcDbPolyline
 90
        2
 70
     0
 10
475.804688
 20
908.410156
 10
475.804688
 20
928.410156
  0
LWPOLYLINE
  5
1D5
100
AcDbEntity
  8
LAYER22
370
    18
390
0
  6
Continuous
 62
     1
100
AcDbPolyline
 90
        2
 70
     0
 10
480.804688
 20
908.410156
 10
480.804688
 20
928.410156
  0
LWPOLYLINE
  5
1D6
100
AcDbEntity
  8
LAYER22
370
    18
390
0
  6
Continuous
 62
     1
100
AcDbPolyline
 90
        2
 70
     0
 10
485.804688
 20
908.410156
 10
485.804688
 20
928.410156
  0
LWPOLYLINE
  5
1D7
100
AcDbEntity
  8
LAYER22
370
    18
390
0
  6
Continuous
 62
     1
100
AcDbPolyline
 90
        2
 70
     0
 10
490.804688
 20
908.410156
 10
490.804688
 20
928.410156
  0
LWPOLYLINE
  5
1D8
100
AcDbEntity
  8
LAYER22
370
    18
390
0
  6
Continuous
 62
     1
100
AcDbPolyline
 90
        2
 70
     0
 10
495.804688
 20
908.410156
 10
495.804688
 20
928.410156
  0
LWPOLYLINE
  5
1D9
100
AcDbEntity
  8
LAYER22
370
    18
390
0
  6
Continuous
 62
     1
100
AcDbPolyline
 90
        2
 70
     0
 10
500.804688
 20
908.410156
 10
500.804688
 20
928.410156
  0
LWPOLYLINE
  5
1DA
100
AcDbEntity
  8
LAYER22
370
    18
390
0
  6
Continuous
 62
     1
100
AcDbPolyline
 90
        2
 70
     0
 10
505.804688
 20
908.410156
 10
505.804688
 20
928.410156
  0
LWPOLYLINE
  5
1DB
100
AcDbEntity
  8
LAYER22
370
    13
390
0
  6
DASHDOT
 62
     5
100
AcDbPolyline
 90
        2
 70
     0
 10
18.804688
 20
885.609375
 10
18.804688
 20
970.410156
  0
CIRCLE
  5
1DC
100
AcDbEntity
  8
LAYER22
390
0
  6
Continuous
 62
     1
100
AcDbCircle
 10
-0.926758
 20
950.109375
 30
0.0
 40
17.5
  0
CIRCLE
  5
1DD
100
AcDbEntity
  8
LAYER22
390
0
  6
Continuous
 62
     1
100
AcDbCircle
 10
39.073242
 20
950.109375
 30
0.0
 40
17.5
  0
CIRCLE
  5
1DE
100
AcDbEntity
  8
LAYER22
390
0
  6
Continuous
 62
     1
100
AcDbCircle
 10
-0.926758
 20
950.109375
 30
0.0
 40
11.0
  0
CIRCLE
  5
1DF
100
AcDbEntity
  8
LAYER22
390
0
  6
Continuous
 62
     1
100
AcDbCircle
 10
39.073242
 20
950.109375
 30
0.0
 40
11.0
  0
CIRCLE
  5
1E0
100
AcDbEntity
  8
LAYER22
390
0
  6
Continuous
 62
     1
100
AcDbCircle
 10
-0.926758
 20
950.109375
 30
0.0
 40
6.0
  0
CIRCLE
  5
1E1
100
AcDbEntity
  8
LAYER22
390
0
  6
Continuous
 62
     1
100
AcDbCircle
 10
39.073242
 20
950.109375
 30
0.0
 40
6.0
  0
CIRCLE
  5
1E2
100
AcDbEntity
  8
LAYER22
390
0
  6
Continuous
 62
     1
100
AcDbCircle
 10
-0.926758
 20
950.109375
 30
0.0
 40
16.0
  0
CIRCLE
  5
1E3
100
AcDbEntity
  8
LAYER22
390
0
  6
Continuous
 62
     1
100
AcDbCircle
 10
39.073242
 20
950.109375
 30
0.0
 40
16.0
  0
LWPOLYLINE
  5
1E4
100
AcDbEntity
  8
LAYER22
370
    18
390
0
  6
Continuous
 62
     1
100
AcDbPolyline
 90
        2
 70
     0
 10
12.291748
 20
961.578125
 10
25.854736
 20
961.578125
  0
LWPOLYLINE
  5
1E5
100
AcDbEntity
  8
LAYER22
370
    18
390
0
  6
Continuous
 62
     1
100
AcDbPolyline
 90
        2
 70
     0
 10
14.869629
 20
942.578125
 10
23.276855
 20
942.578125
  0
LWPOLYLINE
  5
1E6
100
AcDbEntity
  8
LAYER22
370
    18
390
0
  6
Continuous
 62
     1
100
AcDbPolyline
 90
        6
 70
     0
 10
9.873291
 20
963.878906
 10
9.873291
 20
966.578125
 10
15.573242
 20
971.078125
 10
22.573242
 20
971.078125
 10
28.273193
 20
966.578125
 10
28.273193
 20
963.878906
  0
LWPOLYLINE
  5
1E7
100
AcDbEntity
  8
LAYER22
370
    18
390
0
  6
Continuous
 62
     1
100
AcDbPolyline
 90
        2
 70
     0
 10
10.246826
 20
963.578125
 10
27.899658
 20
963.578125
  0
LWPOLYLINE
  5
1E8
100
AcDbEntity
  8
LAYER22
370
    18
390
0
  6
Continuous
 62
     1
100
AcDbPolyline
 90
        2
 70
     0
 10
19.073242
 20
966.578125
 10
19.073242
 20
963.578125
  0
LWPOLYLINE
  5
1E9
100
AcDbEntity
  8
LAYER22
370
    18
390
0
  6
Continuous
 62
     1
100
AcDbPolyline
 90
        3
 70
     0
 10
9.873291
 20
966.578125
 42
-0.217389
 10
19.073284
 20
966.578247
 42
-0.217389
 10
28.273178
 20
966.578064
  0
LWPOLYLINE
  5
1EA
100
AcDbEntity
  8
LAYER22
370
    18
390
0
  6
Continuous
 62
     1
100
AcDbPolyline
 90
        4
 70
     1
 10
11.073242
 20
921.578125
 10
27.073242
 20
921.578125
 10
27.073242
 20
914.578125
 10
11.073242
 20
914.578125
  0
LWPOLYLINE
  5
1EB
100
AcDbEntity
  8
LAYER22
370
    18
390
0
  6
Continuous
 62
     1
100
AcDbPolyline
 90
        2
 70
     0
 10
15.073242
 20
921.578125
 10
15.073242
 20
914.578125
  0
LWPOLYLINE
  5
1EC
100
AcDbEntity
  8
LAYER22
370
    18
390
0
  6
Continuous
 62
     1
100
AcDbPolyline
 90
        2
 70
     0
 10
23.073242
 20
921.578125
 10
23.073242
 20
914.578125
  0
LWPOLYLINE
  5
1ED
100
AcDbEntity
  8
LAYER22
370
    18
390
0
  6
Continuous
 62
     1
100
AcDbPolyline
 90
        6
 70
     1
 10
16.323242
 20
921.578125
 10
16.323242
 20
933.578125
 10
21.823242
 20
933.578125
 10
21.823242
 20
921.578125
 10
16.323242
 20
933.578125
 10
21.823242
 20
933.578125
  0
LWPOLYLINE
  5
1EE
100
AcDbEntity
  8
LAYER22
370
    18
390
0
  6
Continuous
 62
     1
100
AcDbPolyline
 90
        2
 70
     0
 10
25.073242
 20
939.609375
 10
25.073242
 20
921.578125
  0
LWPOLYLINE
  5
1EF
100
AcDbEntity
  8
LAYER22
370
    18
390
0
  6
Continuous
 62
     1
100
AcDbPolyline
 90
        6
 70
     0
 10
25.073242
 20
914.578125
 10
25.073242
 20
889.376953
 10
24.273193
 20
888.578125
 10
13.873291
 20
888.578125
 10
13.073242
 20
889.376953
 10
13.073242
 20
914.578125
  0
LWPOLYLINE
  5
1F0
100
AcDbEntity
  8
LAYER22
370
    18
390
0
  6
Continuous
 62
     1
100
AcDbPolyline
 90
        2
 70
     0
 10
13.073242
 20
921.578125
 10
13.073242
 20
939.609375
  0
LWPOLYLINE
  5
1F1
100
AcDbEntity
  8
LAYER22
370
    18
390
0
  6
Continuous
 62
     1
100
AcDbPolyline
 90
        2
 70
     0
 10
13.073242
 20
889.376953
 10
25.073242
 20
889.376953
  0
LWPOLYLINE
  5
1F2
100
AcDbEntity
  8
LAYER22
370
    18
390
0
  6
Continuous
 62
     1
100
AcDbPolyline
 90
        2
 70
     0
 10
13.873291
 20
889.376953
 10
13.873291
 20
914.578125
  0
LWPOLYLINE
  5
1F3
100
AcDbEntity
  8
LAYER22
370
    18
390
0
  6
Continuous
 62
     1
100
AcDbPolyline
 90
        2
 70
     0
 10
13.873291
 20
921.578125
 10
13.873291
 20
940.771484
  0
LWPOLYLINE
  5
1F4
100
AcDbEntity
  8
LAYER22
370
    18
390
0
  6
Continuous
 62
     1
100
AcDbPolyline
 90
        2
 70
     0
 10
24.273193
 20
889.376953
 10
24.273193
 20
914.578125
  0
LWPOLYLINE
  5
1F5
100
AcDbEntity
  8
LAYER22
370
    18
390
0
  6
Continuous
 62
     1
100
AcDbPolyline
 90
        2
 70
     0
 10
24.273193
 20
921.578125
 10
24.273193
 20
940.771484
  0
ENDSEC
  0
SECTION
  2
OBJECTS
  0
DICTIONARY
  5
19
100
AcDbDictionary
280
     0
281
     1
  3
ACAD_GROUP
350
1A
  3
ACAD_MLINESTYLE
350
1B
  3
ACAD_LAYOUT
350
1E
  3
ACAD_PLOTSETTINGS
350
22
  3
ACAD_PLOTSTYLENAME
350
1F
  3
ACAD_WIPEOUT_VARS
350
23
  0
DICTIONARY
  5
1A
102
{ACAD_REACTORS
330
19
102
}
100
AcDbDictionary
280
     0
281
     1
  0
DICTIONARY
  5
1B
102
{ACAD_REACTORS
330
19
102
}
100
AcDbDictionary
280
     0
281
     1
  3
Standard
350
1C
  0
MLINESTYLE
  5
1C
102
{ACAD_REACTORS
330
1B
102
}
100
AcDbMlineStyle
  2
Standard
 70
     0
  3

 62
     0
 51
90.0
 52
90.0
 71
     2
 49
0.5
 62
   256
  6
ByLayer
 49
-0.5
 62
   256
  6
ByLayer
  0
ACDBDICTIONARYWDFLT
  5
1F
102
{ACAD_REACTORS
330
19
102
}
100
AcDbDictionary
281
     1
  3
Normal
350
1D
100
AcDbDictionaryWithDefault
340
1D
  0
ACDBPLACEHOLDER
  5
1D
102
{ACAD_REACTORS
330
1F
102
}
  0
LAYOUT
  5
20
102
{ACAD_REACTORS
330
1E
102
}
100
AcDbPlotSettings
  1

  2

  4

  6

 40
0.0
 41
0.0
 42
0.0
 43
0.0
 44
0.0
 45
0.0
 46
0.0
 47
0.0
 48
0.0
 49
0.0
140
0.0
141
0.0
142
1.0
143
1.0
 70
  1024
 72
     0
 73
     0
 74
     0
  7

 75
     0
147
1.0
148
0.0
149
0.0
100
AcDbLayout
  1
Model
 70
     0
 71
     0
 10
0.0
 20
0.0
 11
0.0
 21
0.0
 12
0.0
 22
0.0
 32
0.0
 14
0.0
 24
0.0
 34
0.0
 15
0.0
 25
0.0
 35
0.0
146
0.0
 13
0.0
 23
0.0
 33
0.0
 16
0.0
 26
0.0
 36
0.0
 17
0.0
 27
0.0
 37
0.0
 76
     0
330
A
331
0
345
0
346
0
  0
LAYOUT
  5
21
102
{ACAD_REACTORS
330
1E
102
}
100
AcDbPlotSettings
  1

  2

  4

  6

 40
0.0
 41
0.0
 42
0.0
 43
0.0
 44
0.0
 45
0.0
 46
0.0
 47
0.0
 48
0.0
 49
0.0
140
0.0
141
0.0
142
1.0
143
1.0
 70
     0
 72
     0
 73
     0
 74
     0
  7

 75
     0
147
1.0
148
0.0
149
0.0
100
AcDbLayout
  1
Layout1
 70
     0
 71
     0
 10
0.0
 20
0.0
 11
0.0
 21
0.0
 12
0.0
 22
0.0
 32
0.0
 14
0.0
 24
0.0
 34
0.0
 15
0.0
 25
0.0
 35
0.0
146
0.0
 13
0.0
 23
0.0
 33
0.0
 16
0.0
 26
0.0
 36
0.0
 17
0.0
 27
0.0
 37
0.0
 76
     0
330
B
331
0
345
0
346
0
  0
DICTIONARY
  5
1E
102
{ACAD_REACTORS
330
19
102
}
100
AcDbDictionary
280
     0
281
     1
  3
Layout1
350
21
  3
Model
350
20
  0
DICTIONARY
  5
22
102
{ACAD_REACTORS
330
19
102
}
100
AcDbDictionary
280
     0
281
     1
  0
WIPEOUTVARIABLES
  5
23
100
AcDbWipeoutVariables
 70
     1
  0
ENDSEC
  0
EOF
