  0
SECTION
  2
HEADER
  9
$ACADVER
  1
AC1015
  9
$ACADMAINTVER
 70
     6
  9
$DWGCODEPAGE
  3
ANSI_1252
  9
$INSBASE
 10
0.0
 20
0.0
 30
0.0
  9
$EXTMIN
 10
1.000000E+20
 20
1.000000E+20
 30
1.000000E+20
  9
$EXTMAX
 10
-1.000000E+20
 20
-1.000000E+20
 30
-1.000000E+20
  9
$LIMMIN
 10
0.0
 20
0.0
  9
$LIMMAX
 10
0.0
 20
0.0
  9
$ORTHOMODE
 70
     0
  9
$REGENMODE
 70
     1
  9
$FILLMODE
 70
     1
  9
$QTEXTMODE
 70
     0
  9
$MIRRTEXT
 70
     1
  9
$LTSCALE
 40
50.0
  9
$ATTMODE
 70
     1
  9
$TEXTSIZE
 40
0.2
  9
$TRACEWID
 40
0.05
  9
$TEXTSTYLE
  7
Standard
  9
$CLAYER
  8
0
  9
$CELTYPE
  6
Continuous
  9
$CECOLOR
 62
   256
  9
$CELTSCALE
 40
1.0
  9
$DISPSILH
 70
     0
  9
$DIMSCALE
 40
1.0
  9
$DIMASZ
 40
0.18
  9
$DIMEXO
 40
0.0625
  9
$DIMDLI
 40
0.38
  9
$DIMRND
 40
0.0
  9
$DIMDLE
 40
0.0
  9
$DIMEXE
 40
0.18
  9
$DIMTP
 40
0.0
  9
$DIMTM
 40
0.0
  9
$DIMTXT
 40
0.18
  9
$DIMCEN
 40
0.09
  9
$DIMTSZ
 40
0.0
  9
$DIMTOL
 70
     0
  9
$DIMLIM
 70
     0
  9
$DIMTIH
 70
     1
  9
$DIMTOH
 70
     1
  9
$DIMSE1
 70
     0
  9
$DIMSE2
 70
     0
  9
$DIMTAD
 70
     0
  9
$DIMZIN
 70
     0
  9
$DIMBLK
  1

  9
$DIMASO
 70
     1
  9
$DIMSHO
 70
     1
  9
$DIMPOST
  1

  9
$DIMAPOST
  1

  9
$DIMALT
 70
     0
  9
$DIMALTD
 70
     2
  9
$DIMALTF
 40
25.4
  9
$DIMLFAC
 40
1.0
  9
$DIMTOFL
 70
     0
  9
$DIMTVP
 40
0.0
  9
$DIMTIX
 70
     0
  9
$DIMSOXD
 70
     0
  9
$DIMSAH
 70
     0
  9
$DIMBLK1
  1

  9
$DIMBLK2
  1

  9
$DIMSTYLE
  2
Standard
  9
$DIMCLRD
 70
     0
  9
$DIMCLRE
 70
     0
  9
$DIMCLRT
 70
     0
  9
$DIMTFAC
 40
1.0
  9
$DIMGAP
 40
0.09
  9
$DIMJUST
 70
     0
  9
$DIMSD1
 70
     0
  9
$DIMSD2
 70
     0
  9
$DIMTOLJ
 70
     1
  9
$DIMTZIN
 70
     0
  9
$DIMALTZ
 70
     0
  9
$DIMALTTZ
 70
     0
  9
$DIMUPT
 70
     0
  9
$DIMDEC
 70
     4
  9
$DIMTDEC
 70
     4
  9
$DIMALTU
 70
     2
  9
$DIMALTTD
 70
     2
  9
$DIMTXSTY
  7
Standard
  9
$DIMAUNIT
 70
     0
  9
$DIMADEC
 70
     0
  9
$DIMALTRND
 40
0.0
  9
$DIMAZIN
 70
     0
  9
$DIMDSEP
 70
     0
  9
$DIMATFIT
 70
     3
  9
$DIMFRAC
 70
     0
  9
$DIMLDRBLK
  1

  9
$DIMLUNIT
 70
     2
  9
$DIMLWD
 70
     0
  9
$DIMLWE
 70
     0
  9
$DIMTMOVE
 70
     0
  9
$LUNITS
 70
     2
  9
$LUPREC
 70
     4
  9
$SKETCHINC
 40
0.1
  9
$FILLETRAD
 40
0.0
  9
$AUNITS
 70
     0
  9
$AUPREC
 70
     0
  9
$MENU
  1
acad
  9
$ELEVATION
 40
0.0
  9
$PELEVATION
 40
0.0
  9
$THICKNESS
 40
0.0
  9
$LIMCHECK
 70
     0
  9
$CHAMFERA
 40
0.0
  9
$CHAMFERB
 40
0.0
  9
$CHAMFERC
 40
0.0
  9
$CHAMFERD
 40
0.0
  9
$SKPOLY
 70
     0
  9
$TDCREATE
 40
0.000000000
  9
$TDUCREATE
 40
0.000000000
  9
$TDUPDATE
 40
0.000000000
  9
$TDUUPDATE
 40
0.000000000
  9
$TDINDWG
 40
0.0000000000
  9
$TDUSRTIMER
 40
0.0000000000
  9
$USRTIMER
 70
     1
  9
$ANGBASE
 50
0.0
  9
$ANGDIR
 70
     0
  9
$PDMODE
 70
     0
  9
$PDSIZE
 40
0.0
  9
$PLINEWID
 40
0.0
  9
$SPLFRAME
 70
     0
  9
$SPLINETYPE
 70
     6
  9
$SPLINESEGS
 70
   120
  9
$HANDSEED
  5
1ED
  9
$SURFTAB1
 70
     6
  9
$SURFTAB2
 70
     6
  9
$SURFTYPE
 70
     6
  9
$SURFU
 70
     6
  9
$SURFV
 70
     6
  9
$UCSBASE
  2

  9
$UCSNAME
  2

  9
$UCSORG
 10
0.0
 20
0.0
 30
0.0
  9
$UCSXDIR
 10
1.0
 20
0.0
 30
0.0
  9
$UCSYDIR
 10
0.0
 20
1.0
 30
0.0
  9
$UCSORTHOREF
  2

  9
$UCSORTHOVIEW
 70
     0
  9
$UCSORGTOP
 10
0.0
 20
0.0
 30
0.0
  9
$UCSORGBOTTOM
 10
0.0
 20
0.0
 30
0.0
  9
$UCSORGLEFT
 10
0.0
 20
0.0
 30
0.0
  9
$UCSORGRIGHT
 10
0.0
 20
0.0
 30
0.0
  9
$UCSORGFRONT
 10
0.0
 20
0.0
 30
0.0
  9
$UCSORGBACK
 10
0.0
 20
0.0
 30
0.0
  9
$PUCSBASE
  2

  9
$PUCSNAME
  2

  9
$PUCSORG
 10
0.0
 20
0.0
 30
0.0
  9
$PUCSXDIR
 10
1.0
 20
0.0
 30
0.0
  9
$PUCSYDIR
 10
0.0
 20
1.0
 30
0.0
  9
$PUCSORTHOREF
  2

  9
$PUCSORTHOVIEW
 70
     0
  9
$PUCSORGTOP
 10
0.0
 20
0.0
 30
0.0
  9
$PUCSORGBOTTOM
 10
0.0
 20
0.0
 30
0.0
  9
$PUCSORGLEFT
 10
0.0
 20
0.0
 30
0.0
  9
$PUCSORGRIGHT
 10
0.0
 20
0.0
 30
0.0
  9
$PUCSORGFRONT
 10
0.0
 20
0.0
 30
0.0
  9
$PUCSORGBACK
 10
0.0
 20
0.0
 30
0.0
  9
$USERI1
 70
 12345
  9
$USERI2
 70
     0
  9
$USERI3
 70
     0
  9
$USERI4
 70
     0
  9
$USERI5
 70
     0
  9
$USERR1
 40
0.0
  9
$USERR2
 40
0.0
  9
$USERR3
 40
0.0
  9
$USERR4
 40
0.0
  9
$USERR5
 40
0.0
  9
$WORLDVIEW
 70
     1
  9
$SHADEDGE
 70
     3
  9
$SHADEDIF
 70
    70
  9
$TILEMODE
 70
     1
  9
$MAXACTVP
 70
    16
  9
$PINSBASE
 10
0.0
 20
0.0
 30
0.0
  9
$PLIMCHECK
 70
     0
  9
$PEXTMIN
 10
1.000000E+20
 20
1.000000E+20
 30
1.000000E+20
  9
$PEXTMAX
 10
-1.000000E+20
 20
-1.000000E+20
 30
-1.000000E+20
  9
$PLIMMIN
 10
0.0
 20
0.0
  9
$PLIMMAX
 10
12.0
 20
9.0
  9
$UNITMODE
 70
     0
  9
$VISRETAIN
 70
     0
  9
$PLINEGEN
 70
     1
  9
$PSLTSCALE
 70
     0
  9
$TREEDEPTH
 70
  3020
  9
$CMLSTYLE
  2
Standard
  9
$CMLJUST
 70
     0
  9
$CMLSCALE
 40
1.0
  9
$PROXYGRAPHICS
 70
     0
  9
$MEASUREMENT
 70
     0
  9
$CELWEIGHT
370
     0
  9
$ENDCAPS
280
     0
  9
$JOINSTYLE
280
     0
  9
$LWDISPLAY
290
     0
  9
$INSUNITS
 70
     0
  9
$HYPERLINKBASE
  1

  9
$STYLESHEET
  1

  9
$XEDIT
290
     1
  9
$CEPSNTYPE
380
     0
  9
$PSTYLEMODE
290
     1
  9
$FINGERPRINTGUID
  2

  9
$VERSIONGUID
  2

  9
$EXTNAMES
290
     1
  9
$PSVPSCALE
 40
0.0
  0
ENDSEC
  0
SECTION
  2
CLASSES
  0
CLASS
  1
LWPOLYLINE
  2
AcDbPolyline
  3
AutoCAD 2000
 90
        0
280
     0
281
     1
  0
CLASS
  1
IMAGE
  2
AcDbRasterImage
  3
ISM
 90
      127
280
     0
281
     1
  0
CLASS
  1
OLE2FRAME
  2
AcDbOle2Frame
  3
AutoCAD 2000
 90
        0
280
     0
281
     1
  0
CLASS
  1
HATCH
  2
AcDbHatch
  3
AutoCAD 2000
 90
        0
280
     0
281
     1
  0
CLASS
  1
DICTIONARYVAR
  2
AcDbDictionaryVar
  3
AutoCAD 2000
 90
        0
280
     0
281
     0
  0
CLASS
  1
RASTERVARIABLES
  2
AcDbRasterVariables
  3
ISM
 90
        0
280
     0
281
     0
  0
CLASS
  1
IMAGEDEF
  2
AcDbRasterImageDef
  3
ISM
 90
        0
280
     0
281
     0
  0
CLASS
  1
IMAGEDEF_REACTOR
  2
AcDbRasterImageDefReactor
  3
ISM
 90
        1
280
     0
281
     0
  0
CLASS
  1
IDBUFFER
  2
AcDbIdBuffer
  3
AutoCAD 2000
 90
        0
280
     0
281
     0
  0
CLASS
  1
SPATIAL_FILTER
  2
AcDbSpatialFilter
  3
AutoCAD 2000
 90
        0
280
     0
281
     0
  0
CLASS
  1
XRECORD
  2
AcDbXrecord
  3
AutoCAD 2000
 90
        0
280
     0
281
     0
  0
CLASS
  1
SORTENTSTABLE
  2
AcDbSortentsTable
  3
AutoCAD 2000
 90
        0
280
     0
281
     0
  0
CLASS
  1
LAYER_INDEX
  2
AcDbLayerIndex
  3
AutoCAD 2000
 90
        0
280
     0
281
     0
  0
CLASS
  1
SPATIAL_INDEX
  2
AcDbSpatialIndex
  3
AutoCAD 2000
 90
        0
280
     0
281
     0
  0
CLASS
  1
OBJECT_PTR
  2
CAseDLPNTableRecord
  3
"ASE-LPNTableRecord"
 90
        1
280
     0
281
     0
  0
CLASS
  1
LAYOUT
  2
AcDbLayout
  3
AutoCAD 2000
 90
        0
280
     0
281
     0
  0
CLASS
  1
PLOTSETTINGS
  2
AcDbPlotSettings
  3
AutoCAD 2000
 90
        0
280
     0
281
     0
  0
CLASS
  1
ACDBDICTIONARYWDFLT
  2
AcDbDictionaryWithDefault
  3
AutoCAD 2000
 90
        0
280
     0
281
     0
  0
CLASS
  1
ACDBPLACEHOLDER
  2
AcDbPlaceHolder
  3
AutoCAD 2000
 90
        0
280
     0
281
     0
  0
CLASS
  1
VBA_PROJECT
  2
AcDbVbaProject
  3
acadvba
 90
        0
280
     0
281
     0
  0
CLASS
  1
WIPEOUT
  2
AcDbWipeout
  3
WipeOut|AutoCAD Express Tool|expresstools@autodesk.com
 90
      127
280
     0
281
     1
  0
CLASS
  1
WIPEOUTVARIABLES
  2
AcDbWipeoutVariables
  3
WipeOut|AutoCAD Express Tool|expresstools@autodesk.com
 90
        0
280
     0
281
     0
  0
CLASS
  1
RTEXT
  2
RText
  3
RText|AutoCAD Express Tool|expresstools@autodesk.com
 90
        0
280
     0
281
     1
  0
CLASS
  1
ARCALIGNEDTEXT
  2
AcDbArcAlignedText
  3
ATEXT|AutoCAD Express Tool|expresstools@autodesk.com
 90
        0
280
     0
281
     1
  0
ENDSEC
  0
SECTION
  2
TABLES
  0
TABLE
  2
VPORT
  5
7
100
AcDbSymbolTable
 70
     1
  0
VPORT
  5
15
100
AcDbSymbolTableRecord
100
AcDbViewportTableRecord
  2
*ACTIVE
 70
     0
 10
0.0
 20
0.0
 11
1.0
 21
1.0
 12
20.0
 22
-28.0
 13
0.0
 23
0.0
 14
1.0
 24
1.0
 15
0.0
 25
0.0
 16
0.0
 26
0.0
 36
1.0
 17
0.0
 27
0.0
 37
0.0
 40
2812.0
 41
0.688564
 42
50.0
 43
0.0
 44
0.0
 50
0.0
 51
0.0
 71
     0
 72
   100
 73
     1
 74
     1
 75
     0
 76
     0
 77
     0
 78
     0
281
     0
 65
     0
110
0.0
120
0.0
130
0.0
111
1.0
121
0.0
131
0.0
112
0.0
122
1.0
132
0.0
345
0
346
0
 79
     0
146
0.0
  0
ENDTAB
  0
TABLE
  2
LTYPE
  5
4
100
AcDbSymbolTable
 70
     7
  0
LTYPE
  5
11
100
AcDbSymbolTableRecord
100
AcDbLinetypeTableRecord
  2
ByBlock
 70
    64
  3

 72
    65
 73
     0
 40
0.0
  0
LTYPE
  5
12
100
AcDbSymbolTableRecord
100
AcDbLinetypeTableRecord
  2
ByLayer
 70
    64
  3

 72
    65
 73
     0
 40
0.0
  0
LTYPE
  5
13
100
AcDbSymbolTableRecord
100
AcDbLinetypeTableRecord
  2
Continuous
 70
    64
  3
Solid line
 72
    65
 73
     0
 40
0.0
  0
LTYPE
  5
24
100
AcDbSymbolTableRecord
100
AcDbLinetypeTableRecord
  2
DASHED
 70
    64
  3
Dashed __ __ __
 72
    65
 73
     2
 40
0.75
 49
0.5
 74
     0
 49
-0.25
 74
     0
  0
LTYPE
  5
25
100
AcDbSymbolTableRecord
100
AcDbLinetypeTableRecord
  2
DOT
 70
    64
  3
Dot . . . .
 72
    65
 73
     2
 40
0.25
 49
0.0
 74
     0
 49
-0.25
 74
     0
  0
LTYPE
  5
26
100
AcDbSymbolTableRecord
100
AcDbLinetypeTableRecord
  2
DASHDOT
 70
    64
  3
Dash dot __ . __ .
 72
    65
 73
     4
 40
1.0
 49
0.5
 74
     0
 49
-0.25
 74
     0
 49
0.0
 74
     0
 49
-0.25
 74
     0
  0
LTYPE
  5
27
100
AcDbSymbolTableRecord
100
AcDbLinetypeTableRecord
  2
DIVIDE
 70
    64
  3
Divide __ . . __ . .
 72
    65
 73
     6
 40
1.25
 49
0.5
 74
     0
 49
-0.25
 74
     0
 49
0.0
 74
     0
 49
-0.25
 74
     0
 49
0.0
 74
     0
 49
-0.25
 74
     0
  0
ENDTAB
  0
TABLE
  2
LAYER
  5
2
100
AcDbSymbolTable
 70
     2
  0
LAYER
  5
14
100
AcDbSymbolTableRecord
100
AcDbLayerTableRecord
  2
0
 70
     0
 62
     7
  6
Continuous
290
     1
370
    -3
390
1D
  0
LAYER
  5
29
100
AcDbSymbolTableRecord
100
AcDbLayerTableRecord
  2
LAYER22
 70
     0
 62
     7
  6
Continuous
290
     1
370
    -3
390
1D
  0
ENDTAB
  0
TABLE
  2
STYLE
  5
3
100
AcDbSymbolTable
 70
     1
  0
STYLE
  5
17
100
AcDbSymbolTableRecord
100
AcDbTextStyleTableRecord
  2
Standard
 70
     0
 40
0.0
 41
1.0
 50
0.0
 71
     0
 42
0.0
  3
txt
  4

  0
ENDTAB
  0
TABLE
  2
VIEW
  5
5
100
AcDbSymbolTable
 70
     0
  0
ENDTAB
  0
TABLE
  2
UCS
  5
6
100
AcDbSymbolTable
 70
     0
  0
ENDTAB
  0
TABLE
  2
APPID
  5
8
100
AcDbSymbolTable
 70
     1
  0
APPID
  5
16
100
AcDbSymbolTableRecord
100
AcDbRegAppTableRecord
  2
ACAD
 70
     0
  0
ENDTAB
  0
TABLE
  2
DIMSTYLE
  5
9
100
AcDbSymbolTable
 70
     1
100
AcDbDimStyleTable
 71
     0
  0
DIMSTYLE
105
18
100
AcDbSymbolTableRecord
100
AcDbDimStyleTableRecord
  2
Standard
 70
     0
  3

  4

 40
1.0
 41
0.18
 42
0.0625
 43
0.38
 44
0.18
 45
0.0
 46
0.0
 47
0.0
 48
0.0
 71
     0
 72
     0
 73
     1
 74
     1
 75
     0
 76
     0
 77
     0
 78
     0
 79
     0
140
0.18
141
0.09
142
0.0
143
25.4
144
1.0
145
0.0
146
1.0
147
0.09
148
0.0
170
     0
171
     2
172
     0
173
     0
174
     0
175
     0
176
     0
177
     0
178
     0
179
     0
271
     4
272
     4
273
     2
274
     2
275
     0
276
     0
277
     2
278
    46
279
     0
280
     0
281
     0
282
     0
283
     1
284
     0
285
     0
286
     0
288
     0
289
     3
340
17
341
0
342
0
343
0
344
0
371
    -2
372
    -2
  0
ENDTAB
  0
TABLE
  2
BLOCK_RECORD
  5
1
100
AcDbSymbolTable
 70
     0
  0
BLOCK_RECORD
  5
A
100
AcDbSymbolTableRecord
100
AcDbBlockTableRecord
  2
*MODEL_SPACE
340
20
  0
BLOCK_RECORD
  5
B
100
AcDbSymbolTableRecord
100
AcDbBlockTableRecord
  2
*PAPER_SPACE
340
21
  0
ENDTAB
  0
ENDSEC
  0
SECTION
  2
BLOCKS
  0
BLOCK
  5
D
100
AcDbEntity
  8
0
390
0
100
AcDbBlockBegin
  2
*MODEL_SPACE
 70
     0
 10
0.0
 20
0.0
 30
0.0
  3
*MODEL_SPACE
  1

  0
ENDBLK
  5
E
100
AcDbEntity
  8
0
390
0
100
AcDbBlockEnd
  0
BLOCK
  5
F
100
AcDbEntity
 67
     1
  8
0
390
0
100
AcDbBlockBegin
  2
*PAPER_SPACE
 70
     0
 10
0.0
 20
0.0
 30
0.0
  3
*PAPER_SPACE
  1

  0
ENDBLK
  5
10
100
AcDbEntity
 67
     1
  8
0
390
0
100
AcDbBlockEnd
  0
ENDSEC
  0
SECTION
  2
ENTITIES
  0
LWPOLYLINE
  5
28
100
AcDbEntity
  8
LAYER22
370
    18
390
0
  6
Continuous
 62
     1
100
AcDbPolyline
 90
        2
 70
     0
 10
-667.0
 20
-1248.589844
 10
704.0
 20
-1248.589844
  0
MTEXT
  5
2A
100
AcDbEntity
  8
LAYER22
390
0
 62
     2
100
AcDbMText
 10
-652.0
 20
1315.0
 30
0.0
 40
11.25
 41
0.0
 71
     7
 72
     1
  1
VISIO 2-PUNTS OPHANGING
 11
1.0
 21
0.0
 31
0.0
 73
     1
 44
1.333333
  0
LWPOLYLINE
  5
2B
100
AcDbEntity
  8
LAYER22
370
    25
390
0
  6
Continuous
 62
     2
100
AcDbPolyline
 90
        4
 70
     1
 10
-538.0
 20
1128.410156
 10
-538.0
 20
-1228.589844
 10
-548.0
 20
-1228.589844
 10
-548.0
 20
1128.410156
  0
LWPOLYLINE
  5
2C
100
AcDbEntity
  8
LAYER22
370
    25
390
0
  6
Continuous
 62
     2
100
AcDbPolyline
 90
        6
 70
     1
 10
-550.901367
 20
1128.410156
 10
-550.901367
 20
1028.331055
 10
-556.305664
 20
1029.4375
 42
-0.092254
 10
-562.999878
 20
1065.410156
 10
-563.0
 20
1124.410156
 42
-0.414214
 10
-559.0
 20
1128.410156
  0
LWPOLYLINE
  5
2D
100
AcDbEntity
  8
LAYER22
370
    25
390
0
  6
Continuous
 62
     2
100
AcDbPolyline
 90
        6
 70
     1
 10
-535.098633
 20
1128.410156
 10
-535.098633
 20
1028.331055
 10
-529.694336
 20
1029.4375
 42
0.092254
 10
-523.000122
 20
1065.410156
 10
-523.0
 20
1124.410156
 42
0.414214
 10
-527.0
 20
1128.410156
  0
LWPOLYLINE
  5
2E
100
AcDbEntity
  8
LAYER22
370
    18
390
0
  6
Continuous
 62
     1
100
AcDbPolyline
 90
        4
 70
     1
 10
-550.901367
 20
1028.331055
 10
-550.901367
 20
1128.410156
 10
-535.098633
 20
1128.410156
 10
-535.098633
 20
1028.331055
  0
LWPOLYLINE
  5
2F
100
AcDbEntity
  8
LAYER22
370
    25
390
0
  6
Continuous
 62
     2
100
AcDbPolyline
 90
        4
 70
     1
 10
-533.564453
 20
1128.410156
 10
-530.47168
 20
1141.708984
 10
-528.540039
 20
1141.191406
 10
-532.425781
 20
1128.410156
  0
LWPOLYLINE
  5
30
100
AcDbEntity
  8
LAYER22
370
    25
390
0
  6
Continuous
 62
     2
100
AcDbPolyline
 90
        4
 70
     1
 10
-552.435547
 20
1128.410156
 10
-555.52832
 20
1141.708984
 10
-557.459961
 20
1141.191406
 10
-553.574219
 20
1128.410156
  0
LWPOLYLINE
  5
31
100
AcDbEntity
  8
LAYER22
370
    25
390
0
  6
Continuous
 62
     2
100
AcDbPolyline
 90
        6
 70
     1
 10
-535.098633
 20
-1228.589844
 10
-535.098633
 20
-1128.510742
 10
-529.694336
 20
-1129.617188
 42
-0.092254
 10
-523.000122
 20
-1165.589844
 10
-523.0
 20
-1224.589844
 42
-0.414214
 10
-527.0
 20
-1228.589844
  0
LWPOLYLINE
  5
32
100
AcDbEntity
  8
LAYER22
370
    25
390
0
  6
Continuous
 62
     2
100
AcDbPolyline
 90
        6
 70
     1
 10
-550.901367
 20
-1228.589844
 10
-550.901367
 20
-1128.510742
 10
-556.305664
 20
-1129.617188
 42
0.092254
 10
-562.999878
 20
-1165.589844
 10
-563.0
 20
-1224.589844
 42
0.414214
 10
-559.0
 20
-1228.589844
  0
LWPOLYLINE
  5
33
100
AcDbEntity
  8
LAYER22
370
    18
390
0
  6
Continuous
 62
     1
100
AcDbPolyline
 90
        4
 70
     1
 10
-535.098633
 20
-1128.510742
 10
-535.098633
 20
-1228.589844
 10
-550.901367
 20
-1228.589844
 10
-550.901367
 20
-1128.510742
  0
LWPOLYLINE
  5
34
100
AcDbEntity
  8
LAYER22
370
    25
390
0
  6
Continuous
 62
     2
100
AcDbPolyline
 90
        4
 70
     1
 10
-552.435547
 20
-1228.589844
 10
-555.52832
 20
-1241.888672
 10
-557.459961
 20
-1241.371094
 10
-553.574219
 20
-1228.589844
  0
LWPOLYLINE
  5
35
100
AcDbEntity
  8
LAYER22
370
    25
390
0
  6
Continuous
 62
     2
100
AcDbPolyline
 90
        4
 70
     1
 10
-533.564453
 20
-1228.589844
 10
-530.47168
 20
-1241.888672
 10
-528.540039
 20
-1241.371094
 10
-532.425781
 20
-1228.589844
  0
LWPOLYLINE
  5
36
100
AcDbEntity
  8
LAYER22
370
    25
390
0
  6
Continuous
 62
     2
100
AcDbPolyline
 90
       54
 70
     0
 10
-543.0
 20
1231.90918
 10
-535.960938
 20
1231.90918
 10
-534.217773
 20
1232.467773
 10
-532.282227
 20
1233.850586
 10
-530.539063
 20
1234.40918
 10
-529.0
 20
1234.40918
 42
0.414214
 10
-527.0
 20
1236.40918
 10
-527.0
 20
1240.40918
 42
0.414214
 10
-529.0
 20
1242.40918
 10
-535.0
 20
1242.40918
 10
-535.5
 20
1242.90918
 10
-535.5
 20
1245.90918
 10
-535.0
 20
1246.40918
 10
-523.5
 20
1246.40918
 10
-522.5
 20
1245.40918
 10
-522.5
 20
1227.775391
 10
-521.75
 20
1226.476563
 10
-507.700195
 20
1218.364258
 42
0.577319
 10
-504.69989
 20
1220.09668
 10
-504.700195
 20
1233.05957
 42
-1.0
 10
-501.999023
 20
1233.05957
 10
-502.0
 20
1216.40918
 42
-0.414214
 10
-504.0
 20
1214.40918
 42
0.414214
 10
-506.0
 20
1212.40918
 10
-506.0
 20
1158.615234
 42
0.410782
 10
-503.9375
 20
1156.704224
 42
-0.155065
 10
-502.06839
 20
1155.050781
 10
-503.482422
 20
1154.161133
 10
-504.107422
 20
1154.262695
 42
2.636957
 10
-504.107422
 20
1151.610352
 10
-503.482422
 20
1151.711914
 10
-502.092773
 20
1150.90918
 10
-490.647461
 20
1150.90918
 42
-1.551711
 10
-489.486328
 20
1148.40979
 10
-530.25
 20
1148.40918
 42
-1.0
 10
-530.25
 20
1150.90918
 10
-522.75
 20
1150.90918
 10
-515.28418
 20
1152.225586
 42
0.363958
 10
-509.500061
 20
1159.119141
 10
-509.5
 20
1171.30957
 42
0.167235
 10
-512.040771
 20
1178.693604
 10
-511.696289
 20
1179.319336
 42
2.796471
 10
-513.490112
 20
1181.112305
 10
-514.116211
 20
1180.768555
 42
0.167235
 10
-521.5
 20
1183.309326
 10
-529.294922
 20
1183.30957
 42
-0.916326
 10
-529.677673
 20
1187.686279
 10
-512.979492
 20
1190.629883
 42
0.364022
 10
-510.49942
 20
1193.584961
 10
-510.5
 20
1213.749023
 42
0.26793
 10
-511.999817
 20
1216.347046
 10
-530.463867
 20
1227.006836
 10
-531.963867
 20
1227.40918
 10
-543.0
 20
1227.40918
  0
LWPOLYLINE
  5
37
100
AcDbEntity
  8
LAYER22
370
    25
390
0
  6
Continuous
 62
     2
100
AcDbPolyline
 90
       54
 70
     0
 10
-543.0
 20
1231.90918
 10
-550.039063
 20
1231.90918
 10
-551.782227
 20
1232.467773
 10
-553.717773
 20
1233.850586
 10
-555.460938
 20
1234.40918
 10
-557.0
 20
1234.40918
 42
-0.414214
 10
-559.0
 20
1236.40918
 10
-559.0
 20
1240.40918
 42
-0.414214
 10
-557.0
 20
1242.40918
 10
-551.0
 20
1242.40918
 10
-550.5
 20
1242.90918
 10
-550.5
 20
1245.90918
 10
-551.0
 20
1246.40918
 10
-562.5
 20
1246.40918
 10
-563.5
 20
1245.40918
 10
-563.5
 20
1227.775391
 10
-564.25
 20
1226.476563
 10
-578.299805
 20
1218.364258
 42
-0.577319
 10
-581.30011
 20
1220.09668
 10
-581.299805
 20
1233.05957
 42
1.0
 10
-584.000977
 20
1233.05957
 10
-584.0
 20
1216.40918
 42
0.414214
 10
-582.0
 20
1214.40918
 42
-0.414214
 10
-580.0
 20
1212.40918
 10
-580.0
 20
1158.615234
 42
-0.410782
 10
-582.0625
 20
1156.704224
 42
0.155065
 10
-583.931641
 20
1155.050781
 10
-582.517578
 20
1154.161133
 10
-581.892578
 20
1154.262695
 42
-2.636957
 10
-581.892578
 20
1151.610352
 10
-582.517578
 20
1151.711914
 10
-583.907227
 20
1150.90918
 10
-595.352539
 20
1150.90918
 42
1.551711
 10
-596.513672
 20
1148.40979
 10
-555.75
 20
1148.40918
 42
1.0
 10
-555.75
 20
1150.90918
 10
-563.25
 20
1150.90918
 10
-570.71582
 20
1152.225586
 42
-0.363958
 10
-576.499939
 20
1159.119141
 10
-576.5
 20
1171.30957
 42
-0.167235
 10
-573.959229
 20
1178.693604
 10
-574.303711
 20
1179.319336
 42
-2.796471
 10
-572.509888
 20
1181.112305
 10
-571.883789
 20
1180.768555
 42
-0.167235
 10
-564.5
 20
1183.309326
 10
-556.705078
 20
1183.30957
 42
0.916326
 10
-556.322327
 20
1187.686279
 10
-573.020508
 20
1190.629883
 42
-0.364022
 10
-575.500549
 20
1193.584961
 10
-575.5
 20
1213.749023
 42
-0.26793
 10
-574.000183
 20
1216.347046
 10
-555.536133
 20
1227.006836
 10
-554.036133
 20
1227.40918
 10
-543.0
 20
1227.40918
  0
LWPOLYLINE
  5
38
100
AcDbEntity
  8
LAYER22
370
    18
390
0
  6
Continuous
 62
     1
100
AcDbPolyline
 90
        6
 70
     1
 10
-554.639648
 20
1211.587891
 10
-554.639648
 20
1218.1875
 10
-551.820313
 20
1219.267578
 10
-534.179688
 20
1219.267578
 10
-531.360352
 20
1218.1875
 10
-531.360352
 20
1211.587891
  0
LWPOLYLINE
  5
39
100
AcDbEntity
  8
LAYER22
370
    18
390
0
  6
Continuous
 62
     1
100
AcDbPolyline
 90
        7
 70
     0
 10
-543.0
 20
1211.587891
 10
-525.5
 20
1211.587891
 10
-513.431641
 20
1208.011719
 42
-0.332102
 10
-512.000549
 20
1206.094727
 10
-512.0
 20
1192.587891
 42
-0.414214
 10
-514.0
 20
1190.587891
 10
-543.0
 20
1190.587891
  0
LWPOLYLINE
  5
3A
100
AcDbEntity
  8
LAYER22
370
    18
390
0
  6
Continuous
 62
     1
100
AcDbPolyline
 90
        4
 70
     1
 10
-552.0
 20
1190.587891
 10
-534.0
 20
1190.587891
 10
-534.0
 20
1176.587891
 10
-552.0
 20
1176.587891
  0
LWPOLYLINE
  5
3B
100
AcDbEntity
  8
LAYER22
370
    18
390
0
  6
Continuous
 62
     1
100
AcDbPolyline
 90
        2
 70
     0
 10
-569.0
 20
1207.587891
 10
-517.0
 20
1207.587891
  0
LWPOLYLINE
  5
3C
100
AcDbEntity
  8
LAYER22
370
    18
390
0
  6
Continuous
 62
     1
100
AcDbPolyline
 90
        7
 70
     0
 10
-543.0
 20
1211.587891
 10
-560.5
 20
1211.587891
 10
-572.568359
 20
1208.011719
 42
0.332102
 10
-573.999451
 20
1206.094727
 10
-574.0
 20
1192.587891
 42
0.414214
 10
-572.0
 20
1190.587891
 10
-543.0
 20
1190.587891
  0
LWPOLYLINE
  5
3D
100
AcDbEntity
  8
LAYER22
370
    18
390
0
  6
Continuous
 62
     1
100
AcDbPolyline
 90
        7
 70
     0
 10
-543.0
 20
1176.587891
 10
-525.5
 20
1176.587891
 10
-513.431641
 20
1173.011719
 42
-0.332102
 10
-512.000549
 20
1171.094727
 10
-512.0
 20
1157.587891
 42
-0.414214
 10
-514.0
 20
1155.587891
 10
-543.0
 20
1155.587891
  0
LWPOLYLINE
  5
3E
100
AcDbEntity
  8
LAYER22
370
    18
390
0
  6
Continuous
 62
     1
100
AcDbPolyline
 90
        2
 70
     0
 10
-569.0
 20
1172.587891
 10
-517.0
 20
1172.587891
  0
LWPOLYLINE
  5
3F
100
AcDbEntity
  8
LAYER22
370
    18
390
0
  6
Continuous
 62
     1
100
AcDbPolyline
 90
        7
 70
     0
 10
-543.0
 20
1176.587891
 10
-560.5
 20
1176.587891
 10
-572.568359
 20
1173.011719
 42
0.332102
 10
-573.999451
 20
1171.094727
 10
-574.0
 20
1157.587891
 42
0.414214
 10
-572.0
 20
1155.587891
 10
-543.0
 20
1155.587891
  0
LWPOLYLINE
  5
40
100
AcDbEntity
  8
LAYER22
370
    13
390
0
  6
DASHED
 62
     5
100
AcDbPolyline
 90
        2
 70
     0
 10
-543.0
 20
1219.267578
 10
-543.0
 20
1114.0
  0
LWPOLYLINE
  5
41
100
AcDbEntity
  8
LAYER22
370
    18
390
0
  6
Continuous
 62
     1
100
AcDbPolyline
 90
        4
 70
     1
 10
-535.0
 20
1155.587891
 10
-535.0
 20
1148.410156
 10
-551.0
 20
1148.410156
 10
-551.0
 20
1155.587891
  0
LWPOLYLINE
  5
42
100
AcDbEntity
  8
LAYER22
370
    18
390
0
  6
Continuous
 62
     1
100
AcDbPolyline
 90
        4
 70
     1
 10
-551.018555
 20
1128.410156
 10
-551.018555
 20
1135.410156
 10
-535.018555
 20
1135.410156
 10
-535.018555
 20
1128.410156
  0
LWPOLYLINE
  5
43
100
AcDbEntity
  8
LAYER22
370
    18
390
0
  6
Continuous
 62
     1
100
AcDbPolyline
 90
        6
 70
     1
 10
-537.018555
 20
1128.410156
 10
-537.018555
 20
1119.267578
 10
-538.123047
 20
1118.600586
 10
-547.915039
 20
1118.600586
 10
-549.018555
 20
1119.267578
 10
-549.018555
 20
1128.410156
  0
LWPOLYLINE
  5
44
100
AcDbEntity
  8
LAYER22
370
    18
390
0
  6
Continuous
 62
     1
100
AcDbPolyline
 90
        4
 70
     1
 10
-537.018555
 20
1148.410156
 10
-537.018555
 20
1135.410156
 10
-549.018555
 20
1135.410156
 10
-549.018555
 20
1148.410156
  0
LWPOLYLINE
  5
45
100
AcDbEntity
  8
LAYER22
370
    25
390
0
  6
Continuous
 62
     2
100
AcDbPolyline
 90
        4
 70
     1
 10
-397.195313
 20
-1356.572266
 10
598.804688
 20
-1356.572266
 10
598.804688
 20
-1366.572266
 10
-397.195313
 20
-1366.572266
  0
LWPOLYLINE
  5
46
100
AcDbEntity
  8
LAYER22
370
    18
390
0
  6
Continuous
 62
     1
100
AcDbPolyline
 90
        4
 70
     1
 10
-393.195313
 20
-1341.572266
 10
594.804688
 20
-1341.572266
 10
594.804688
 20
-1381.572266
 10
-393.195313
 20
-1381.572266
  0
LWPOLYLINE
  5
47
100
AcDbEntity
  8
LAYER22
370
    18
390
0
  6
Continuous
 62
     1
100
AcDbPolyline
 90
        6
 70
     1
 10
-393.195313
 20
-1381.550781
 10
-396.155273
 20
-1381.550781
 10
-399.195313
 20
-1369.392578
 10
-399.195313
 20
-1353.708984
 10
-396.160156
 20
-1341.572266
 10
-393.195313
 20
-1341.572266
  0
LWPOLYLINE
  5
48
100
AcDbEntity
  8
LAYER22
370
    18
390
0
  6
Continuous
 62
     1
100
AcDbPolyline
 90
        6
 70
     1
 10
594.804688
 20
-1381.550781
 10
597.764648
 20
-1381.5625
 10
600.804688
 20
-1369.404297
 10
600.804688
 20
-1353.71875
 10
597.769531
 20
-1341.583984
 10
594.804688
 20
-1341.572266
  0
LWPOLYLINE
  5
49
100
AcDbEntity
  8
LAYER22
370
    18
390
0
  6
Continuous
 62
     1
100
AcDbPolyline
 90
        4
 70
     1
 10
-395.195313
 20
1028.410156
 10
-395.195313
 20
1128.410156
 10
598.804688
 20
1128.410156
 10
598.804688
 20
1028.410156
  0
LWPOLYLINE
  5
4A
100
AcDbEntity
  8
LAYER22
370
    18
390
0
  6
Continuous
 62
     1
100
AcDbPolyline
 90
        4
 70
     1
 10
-399.195313
 20
-1228.589844
 10
-399.195313
 20
-1128.589844
 10
602.804688
 20
-1128.589844
 10
602.804688
 20
-1228.589844
  0
LWPOLYLINE
  5
4B
100
AcDbEntity
  8
LAYER22
370
    18
390
0
  6
Continuous
 62
     1
100
AcDbPolyline
 90
        4
 70
     1
 10
-393.195313
 20
-1128.589844
 10
-393.195313
 20
1028.410156
 10
596.804688
 20
1028.410156
 10
596.804688
 20
-1128.589844
  0
LWPOLYLINE
  5
4C
100
AcDbEntity
  8
LAYER22
370
    18
390
0
  6
DASHED
 62
     1
100
AcDbPolyline
 90
        2
 70
     0
 10
-300.195313
 20
1207.587891
 10
-248.195313
 20
1207.587891
  0
LWPOLYLINE
  5
4D
100
AcDbEntity
  8
LAYER22
370
    18
390
0
  6
DASHED
 62
     1
100
AcDbPolyline
 90
        2
 70
     0
 10
-300.195313
 20
1172.587891
 10
-248.195313
 20
1172.587891
  0
LWPOLYLINE
  5
4E
100
AcDbEntity
  8
LAYER22
370
    13
390
0
  6
DASHED
 62
     5
100
AcDbPolyline
 90
        2
 70
     0
 10
-274.195313
 20
1219.267578
 10
-274.195313
 20
1114.0
  0
LWPOLYLINE
  5
4F
100
AcDbEntity
  8
LAYER22
370
    18
390
0
  6
DASHED
 62
     1
100
AcDbPolyline
 90
        6
 70
     1
 10
-285.834961
 20
1211.587891
 10
-285.834961
 20
1218.1875
 10
-283.015625
 20
1219.267578
 10
-265.375
 20
1219.267578
 10
-262.555664
 20
1218.1875
 10
-262.555664
 20
1211.587891
  0
LWPOLYLINE
  5
50
100
AcDbEntity
  8
LAYER22
370
    18
390
0
  6
DASHED
 62
     1
100
AcDbPolyline
 90
        7
 70
     0
 10
-274.195313
 20
1211.587891
 10
-256.695313
 20
1211.587891
 10
-244.626953
 20
1208.011719
 42
-0.332102
 10
-243.195831
 20
1206.094727
 10
-243.195313
 20
1192.587891
 42
-0.414214
 10
-245.195313
 20
1190.587891
 10
-274.195313
 20
1190.587891
  0
LWPOLYLINE
  5
51
100
AcDbEntity
  8
LAYER22
370
    18
390
0
  6
DASHED
 62
     1
100
AcDbPolyline
 90
        4
 70
     1
 10
-283.195313
 20
1190.587891
 10
-265.195313
 20
1190.587891
 10
-265.195313
 20
1176.587891
 10
-283.195313
 20
1176.587891
  0
LWPOLYLINE
  5
52
100
AcDbEntity
  8
LAYER22
370
    18
390
0
  6
DASHED
 62
     1
100
AcDbPolyline
 90
        7
 70
     0
 10
-274.195313
 20
1211.587891
 10
-291.695313
 20
1211.587891
 10
-303.763672
 20
1208.011719
 42
0.332102
 10
-305.194794
 20
1206.094727
 10
-305.195313
 20
1192.587891
 42
0.414214
 10
-303.195313
 20
1190.587891
 10
-274.195313
 20
1190.587891
  0
LWPOLYLINE
  5
53
100
AcDbEntity
  8
LAYER22
370
    18
390
0
  6
DASHED
 62
     1
100
AcDbPolyline
 90
        7
 70
     0
 10
-274.195313
 20
1176.587891
 10
-256.695313
 20
1176.587891
 10
-244.626953
 20
1173.011719
 42
-0.332102
 10
-243.195831
 20
1171.094727
 10
-243.195313
 20
1157.587891
 42
-0.414214
 10
-245.195313
 20
1155.587891
 10
-274.195313
 20
1155.587891
  0
LWPOLYLINE
  5
54
100
AcDbEntity
  8
LAYER22
370
    18
390
0
  6
DASHED
 62
     1
100
AcDbPolyline
 90
        7
 70
     0
 10
-274.195313
 20
1176.587891
 10
-291.695313
 20
1176.587891
 10
-303.763672
 20
1173.011719
 42
0.332102
 10
-305.194794
 20
1171.094727
 10
-305.195313
 20
1157.587891
 42
0.414214
 10
-303.195313
 20
1155.587891
 10
-274.195313
 20
1155.587891
  0
LWPOLYLINE
  5
55
100
AcDbEntity
  8
LAYER22
370
    18
390
0
  6
DASHED
 62
     1
100
AcDbPolyline
 90
        4
 70
     1
 10
-283.195313
 20
1155.587891
 10
-265.195313
 20
1155.587891
 10
-265.195313
 20
1128.410156
 10
-283.195313
 20
1128.410156
  0
LWPOLYLINE
  5
56
100
AcDbEntity
  8
LAYER22
370
    18
390
0
  6
DASHED
 62
     1
100
AcDbPolyline
 90
        2
 70
     0
 10
451.804688
 20
1207.587891
 10
503.804688
 20
1207.587891
  0
LWPOLYLINE
  5
57
100
AcDbEntity
  8
LAYER22
370
    18
390
0
  6
DASHED
 62
     1
100
AcDbPolyline
 90
        2
 70
     0
 10
451.804688
 20
1172.587891
 10
503.804688
 20
1172.587891
  0
LWPOLYLINE
  5
58
100
AcDbEntity
  8
LAYER22
370
    13
390
0
  6
DASHED
 62
     5
100
AcDbPolyline
 90
        2
 70
     0
 10
477.804688
 20
1219.267578
 10
477.804688
 20
1114.0
  0
LWPOLYLINE
  5
59
100
AcDbEntity
  8
LAYER22
370
    18
390
0
  6
DASHED
 62
     1
100
AcDbPolyline
 90
        6
 70
     1
 10
466.165039
 20
1211.587891
 10
466.165039
 20
1218.1875
 10
468.984375
 20
1219.267578
 10
486.625
 20
1219.267578
 10
489.444336
 20
1218.1875
 10
489.444336
 20
1211.587891
  0
LWPOLYLINE
  5
5A
100
AcDbEntity
  8
LAYER22
370
    18
390
0
  6
DASHED
 62
     1
100
AcDbPolyline
 90
        7
 70
     0
 10
477.804688
 20
1211.587891
 10
495.304688
 20
1211.587891
 10
507.373047
 20
1208.011719
 42
-0.332102
 10
508.804169
 20
1206.094727
 10
508.804688
 20
1192.587891
 42
-0.414214
 10
506.804688
 20
1190.587891
 10
477.804688
 20
1190.587891
  0
LWPOLYLINE
  5
5B
100
AcDbEntity
  8
LAYER22
370
    18
390
0
  6
DASHED
 62
     1
100
AcDbPolyline
 90
        4
 70
     1
 10
468.804688
 20
1190.587891
 10
486.804688
 20
1190.587891
 10
486.804688
 20
1176.587891
 10
468.804688
 20
1176.587891
  0
LWPOLYLINE
  5
5C
100
AcDbEntity
  8
LAYER22
370
    18
390
0
  6
DASHED
 62
     1
100
AcDbPolyline
 90
        7
 70
     0
 10
477.804688
 20
1211.587891
 10
460.304688
 20
1211.587891
 10
448.236328
 20
1208.011719
 42
0.332102
 10
446.805206
 20
1206.094727
 10
446.804688
 20
1192.587891
 42
0.414214
 10
448.804688
 20
1190.587891
 10
477.804688
 20
1190.587891
  0
LWPOLYLINE
  5
5D
100
AcDbEntity
  8
LAYER22
370
    18
390
0
  6
DASHED
 62
     1
100
AcDbPolyline
 90
        7
 70
     0
 10
477.804688
 20
1176.587891
 10
495.304688
 20
1176.587891
 10
507.373047
 20
1173.011719
 42
-0.332102
 10
508.804169
 20
1171.094727
 10
508.804688
 20
1157.587891
 42
-0.414214
 10
506.804688
 20
1155.587891
 10
477.804688
 20
1155.587891
  0
LWPOLYLINE
  5
5E
100
AcDbEntity
  8
LAYER22
370
    18
390
0
  6
DASHED
 62
     1
100
AcDbPolyline
 90
        7
 70
     0
 10
477.804688
 20
1176.587891
 10
460.304688
 20
1176.587891
 10
448.236328
 20
1173.011719
 42
0.332102
 10
446.805206
 20
1171.094727
 10
446.804688
 20
1157.587891
 42
0.414214
 10
448.804688
 20
1155.587891
 10
477.804688
 20
1155.587891
  0
LWPOLYLINE
  5
5F
100
AcDbEntity
  8
LAYER22
370
    18
390
0
  6
DASHED
 62
     1
100
AcDbPolyline
 90
        4
 70
     1
 10
468.804688
 20
1155.587891
 10
486.804688
 20
1155.587891
 10
486.804688
 20
1128.410156
 10
468.804688
 20
1128.410156
  0
LWPOLYLINE
  5
60
100
AcDbEntity
  8
LAYER22
370
    18
390
0
  6
Continuous
 62
     1
100
AcDbPolyline
 90
        4
 70
     1
 10
-395.195313
 20
1148.410156
 10
-395.195313
 20
1151.410156
 10
598.804688
 20
1151.410156
 10
598.804688
 20
1148.410156
  0
LWPOLYLINE
  5
61
100
AcDbEntity
  8
LAYER22
370
    18
390
0
  6
DASHED
 62
     1
100
AcDbPolyline
 90
        2
 70
     0
 10
-395.195313
 20
1246.410156
 10
598.804688
 20
1246.410156
  0
LWPOLYLINE
  5
62
100
AcDbEntity
  8
LAYER22
370
    18
390
0
  6
Continuous
 62
     1
100
AcDbPolyline
 90
        4
 70
     1
 10
-393.195313
 20
-1248.589844
 10
-393.195313
 20
-1228.589844
 10
598.804688
 20
-1228.589844
 10
598.804688
 20
-1248.589844
  0
LWPOLYLINE
  5
63
100
AcDbEntity
  8
LAYER22
370
    18
390
0
  6
Continuous
 62
     1
100
AcDbPolyline
 90
        2
 70
     0
 10
-388.195313
 20
-1248.589844
 10
-388.195313
 20
-1228.589844
  0
LWPOLYLINE
  5
64
100
AcDbEntity
  8
LAYER22
370
    18
390
0
  6
Continuous
 62
     1
100
AcDbPolyline
 90
        2
 70
     0
 10
-383.195313
 20
-1248.589844
 10
-383.195313
 20
-1228.589844
  0
LWPOLYLINE
  5
65
100
AcDbEntity
  8
LAYER22
370
    18
390
0
  6
Continuous
 62
     1
100
AcDbPolyline
 90
        2
 70
     0
 10
-378.195313
 20
-1248.589844
 10
-378.195313
 20
-1228.589844
  0
LWPOLYLINE
  5
66
100
AcDbEntity
  8
LAYER22
370
    18
390
0
  6
Continuous
 62
     1
100
AcDbPolyline
 90
        2
 70
     0
 10
-373.195313
 20
-1248.589844
 10
-373.195313
 20
-1228.589844
  0
LWPOLYLINE
  5
67
100
AcDbEntity
  8
LAYER22
370
    18
390
0
  6
Continuous
 62
     1
100
AcDbPolyline
 90
        2
 70
     0
 10
-368.195313
 20
-1248.589844
 10
-368.195313
 20
-1228.589844
  0
LWPOLYLINE
  5
68
100
AcDbEntity
  8
LAYER22
370
    18
390
0
  6
Continuous
 62
     1
100
AcDbPolyline
 90
        2
 70
     0
 10
-363.195313
 20
-1248.589844
 10
-363.195313
 20
-1228.589844
  0
LWPOLYLINE
  5
69
100
AcDbEntity
  8
LAYER22
370
    18
390
0
  6
Continuous
 62
     1
100
AcDbPolyline
 90
        2
 70
     0
 10
-358.195313
 20
-1248.589844
 10
-358.195313
 20
-1228.589844
  0
LWPOLYLINE
  5
6A
100
AcDbEntity
  8
LAYER22
370
    18
390
0
  6
Continuous
 62
     1
100
AcDbPolyline
 90
        2
 70
     0
 10
-353.195313
 20
-1248.589844
 10
-353.195313
 20
-1228.589844
  0
LWPOLYLINE
  5
6B
100
AcDbEntity
  8
LAYER22
370
    18
390
0
  6
Continuous
 62
     1
100
AcDbPolyline
 90
        2
 70
     0
 10
-348.195313
 20
-1248.589844
 10
-348.195313
 20
-1228.589844
  0
LWPOLYLINE
  5
6C
100
AcDbEntity
  8
LAYER22
370
    18
390
0
  6
Continuous
 62
     1
100
AcDbPolyline
 90
        2
 70
     0
 10
-343.195313
 20
-1248.589844
 10
-343.195313
 20
-1228.589844
  0
LWPOLYLINE
  5
6D
100
AcDbEntity
  8
LAYER22
370
    18
390
0
  6
Continuous
 62
     1
100
AcDbPolyline
 90
        2
 70
     0
 10
-338.195313
 20
-1248.589844
 10
-338.195313
 20
-1228.589844
  0
LWPOLYLINE
  5
6E
100
AcDbEntity
  8
LAYER22
370
    18
390
0
  6
Continuous
 62
     1
100
AcDbPolyline
 90
        2
 70
     0
 10
-333.195313
 20
-1248.589844
 10
-333.195313
 20
-1228.589844
  0
LWPOLYLINE
  5
6F
100
AcDbEntity
  8
LAYER22
370
    18
390
0
  6
Continuous
 62
     1
100
AcDbPolyline
 90
        2
 70
     0
 10
-328.195313
 20
-1248.589844
 10
-328.195313
 20
-1228.589844
  0
LWPOLYLINE
  5
70
100
AcDbEntity
  8
LAYER22
370
    18
390
0
  6
Continuous
 62
     1
100
AcDbPolyline
 90
        2
 70
     0
 10
-323.195313
 20
-1248.589844
 10
-323.195313
 20
-1228.589844
  0
LWPOLYLINE
  5
71
100
AcDbEntity
  8
LAYER22
370
    18
390
0
  6
Continuous
 62
     1
100
AcDbPolyline
 90
        2
 70
     0
 10
-318.195313
 20
-1248.589844
 10
-318.195313
 20
-1228.589844
  0
LWPOLYLINE
  5
72
100
AcDbEntity
  8
LAYER22
370
    18
390
0
  6
Continuous
 62
     1
100
AcDbPolyline
 90
        2
 70
     0
 10
-313.195313
 20
-1248.589844
 10
-313.195313
 20
-1228.589844
  0
LWPOLYLINE
  5
73
100
AcDbEntity
  8
LAYER22
370
    18
390
0
  6
Continuous
 62
     1
100
AcDbPolyline
 90
        2
 70
     0
 10
-308.195313
 20
-1248.589844
 10
-308.195313
 20
-1228.589844
  0
LWPOLYLINE
  5
74
100
AcDbEntity
  8
LAYER22
370
    18
390
0
  6
Continuous
 62
     1
100
AcDbPolyline
 90
        2
 70
     0
 10
-303.195313
 20
-1248.589844
 10
-303.195313
 20
-1228.589844
  0
LWPOLYLINE
  5
75
100
AcDbEntity
  8
LAYER22
370
    18
390
0
  6
Continuous
 62
     1
100
AcDbPolyline
 90
        2
 70
     0
 10
-298.195313
 20
-1248.589844
 10
-298.195313
 20
-1228.589844
  0
LWPOLYLINE
  5
76
100
AcDbEntity
  8
LAYER22
370
    18
390
0
  6
Continuous
 62
     1
100
AcDbPolyline
 90
        2
 70
     0
 10
-293.195313
 20
-1248.589844
 10
-293.195313
 20
-1228.589844
  0
LWPOLYLINE
  5
77
100
AcDbEntity
  8
LAYER22
370
    18
390
0
  6
Continuous
 62
     1
100
AcDbPolyline
 90
        2
 70
     0
 10
-288.195313
 20
-1248.589844
 10
-288.195313
 20
-1228.589844
  0
LWPOLYLINE
  5
78
100
AcDbEntity
  8
LAYER22
370
    18
390
0
  6
Continuous
 62
     1
100
AcDbPolyline
 90
        2
 70
     0
 10
-283.195313
 20
-1248.589844
 10
-283.195313
 20
-1228.589844
  0
LWPOLYLINE
  5
79
100
AcDbEntity
  8
LAYER22
370
    18
390
0
  6
Continuous
 62
     1
100
AcDbPolyline
 90
        2
 70
     0
 10
-278.195313
 20
-1248.589844
 10
-278.195313
 20
-1228.589844
  0
LWPOLYLINE
  5
7A
100
AcDbEntity
  8
LAYER22
370
    18
390
0
  6
Continuous
 62
     1
100
AcDbPolyline
 90
        2
 70
     0
 10
-273.195313
 20
-1248.589844
 10
-273.195313
 20
-1228.589844
  0
LWPOLYLINE
  5
7B
100
AcDbEntity
  8
LAYER22
370
    18
390
0
  6
Continuous
 62
     1
100
AcDbPolyline
 90
        2
 70
     0
 10
-268.195313
 20
-1248.589844
 10
-268.195313
 20
-1228.589844
  0
LWPOLYLINE
  5
7C
100
AcDbEntity
  8
LAYER22
370
    18
390
0
  6
Continuous
 62
     1
100
AcDbPolyline
 90
        2
 70
     0
 10
-263.195313
 20
-1248.589844
 10
-263.195313
 20
-1228.589844
  0
LWPOLYLINE
  5
7D
100
AcDbEntity
  8
LAYER22
370
    18
390
0
  6
Continuous
 62
     1
100
AcDbPolyline
 90
        2
 70
     0
 10
-258.195313
 20
-1248.589844
 10
-258.195313
 20
-1228.589844
  0
LWPOLYLINE
  5
7E
100
AcDbEntity
  8
LAYER22
370
    18
390
0
  6
Continuous
 62
     1
100
AcDbPolyline
 90
        2
 70
     0
 10
-253.195313
 20
-1248.589844
 10
-253.195313
 20
-1228.589844
  0
LWPOLYLINE
  5
7F
100
AcDbEntity
  8
LAYER22
370
    18
390
0
  6
Continuous
 62
     1
100
AcDbPolyline
 90
        2
 70
     0
 10
-248.195313
 20
-1248.589844
 10
-248.195313
 20
-1228.589844
  0
LWPOLYLINE
  5
80
100
AcDbEntity
  8
LAYER22
370
    18
390
0
  6
Continuous
 62
     1
100
AcDbPolyline
 90
        2
 70
     0
 10
-243.195313
 20
-1248.589844
 10
-243.195313
 20
-1228.589844
  0
LWPOLYLINE
  5
81
100
AcDbEntity
  8
LAYER22
370
    18
390
0
  6
Continuous
 62
     1
100
AcDbPolyline
 90
        2
 70
     0
 10
-238.195313
 20
-1248.589844
 10
-238.195313
 20
-1228.589844
  0
LWPOLYLINE
  5
82
100
AcDbEntity
  8
LAYER22
370
    18
390
0
  6
Continuous
 62
     1
100
AcDbPolyline
 90
        2
 70
     0
 10
-233.195313
 20
-1248.589844
 10
-233.195313
 20
-1228.589844
  0
LWPOLYLINE
  5
83
100
AcDbEntity
  8
LAYER22
370
    18
390
0
  6
Continuous
 62
     1
100
AcDbPolyline
 90
        2
 70
     0
 10
-228.195313
 20
-1248.589844
 10
-228.195313
 20
-1228.589844
  0
LWPOLYLINE
  5
84
100
AcDbEntity
  8
LAYER22
370
    18
390
0
  6
Continuous
 62
     1
100
AcDbPolyline
 90
        2
 70
     0
 10
-223.195313
 20
-1248.589844
 10
-223.195313
 20
-1228.589844
  0
LWPOLYLINE
  5
85
100
AcDbEntity
  8
LAYER22
370
    18
390
0
  6
Continuous
 62
     1
100
AcDbPolyline
 90
        2
 70
     0
 10
-218.195313
 20
-1248.589844
 10
-218.195313
 20
-1228.589844
  0
LWPOLYLINE
  5
86
100
AcDbEntity
  8
LAYER22
370
    18
390
0
  6
Continuous
 62
     1
100
AcDbPolyline
 90
        2
 70
     0
 10
-213.195313
 20
-1248.589844
 10
-213.195313
 20
-1228.589844
  0
LWPOLYLINE
  5
87
100
AcDbEntity
  8
LAYER22
370
    18
390
0
  6
Continuous
 62
     1
100
AcDbPolyline
 90
        2
 70
     0
 10
-208.195313
 20
-1248.589844
 10
-208.195313
 20
-1228.589844
  0
LWPOLYLINE
  5
88
100
AcDbEntity
  8
LAYER22
370
    18
390
0
  6
Continuous
 62
     1
100
AcDbPolyline
 90
        2
 70
     0
 10
-203.195313
 20
-1248.589844
 10
-203.195313
 20
-1228.589844
  0
LWPOLYLINE
  5
89
100
AcDbEntity
  8
LAYER22
370
    18
390
0
  6
Continuous
 62
     1
100
AcDbPolyline
 90
        2
 70
     0
 10
-198.195313
 20
-1248.589844
 10
-198.195313
 20
-1228.589844
  0
LWPOLYLINE
  5
8A
100
AcDbEntity
  8
LAYER22
370
    18
390
0
  6
Continuous
 62
     1
100
AcDbPolyline
 90
        2
 70
     0
 10
-193.195313
 20
-1248.589844
 10
-193.195313
 20
-1228.589844
  0
LWPOLYLINE
  5
8B
100
AcDbEntity
  8
LAYER22
370
    18
390
0
  6
Continuous
 62
     1
100
AcDbPolyline
 90
        2
 70
     0
 10
-188.195313
 20
-1248.589844
 10
-188.195313
 20
-1228.589844
  0
LWPOLYLINE
  5
8C
100
AcDbEntity
  8
LAYER22
370
    18
390
0
  6
Continuous
 62
     1
100
AcDbPolyline
 90
        2
 70
     0
 10
-183.195313
 20
-1248.589844
 10
-183.195313
 20
-1228.589844
  0
LWPOLYLINE
  5
8D
100
AcDbEntity
  8
LAYER22
370
    18
390
0
  6
Continuous
 62
     1
100
AcDbPolyline
 90
        2
 70
     0
 10
-178.195313
 20
-1248.589844
 10
-178.195313
 20
-1228.589844
  0
LWPOLYLINE
  5
8E
100
AcDbEntity
  8
LAYER22
370
    18
390
0
  6
Continuous
 62
     1
100
AcDbPolyline
 90
        2
 70
     0
 10
-173.195313
 20
-1248.589844
 10
-173.195313
 20
-1228.589844
  0
LWPOLYLINE
  5
8F
100
AcDbEntity
  8
LAYER22
370
    18
390
0
  6
Continuous
 62
     1
100
AcDbPolyline
 90
        2
 70
     0
 10
-168.195313
 20
-1248.589844
 10
-168.195313
 20
-1228.589844
  0
LWPOLYLINE
  5
90
100
AcDbEntity
  8
LAYER22
370
    18
390
0
  6
Continuous
 62
     1
100
AcDbPolyline
 90
        2
 70
     0
 10
-163.195313
 20
-1248.589844
 10
-163.195313
 20
-1228.589844
  0
LWPOLYLINE
  5
91
100
AcDbEntity
  8
LAYER22
370
    18
390
0
  6
Continuous
 62
     1
100
AcDbPolyline
 90
        2
 70
     0
 10
-158.195313
 20
-1248.589844
 10
-158.195313
 20
-1228.589844
  0
LWPOLYLINE
  5
92
100
AcDbEntity
  8
LAYER22
370
    18
390
0
  6
Continuous
 62
     1
100
AcDbPolyline
 90
        2
 70
     0
 10
-153.195313
 20
-1248.589844
 10
-153.195313
 20
-1228.589844
  0
LWPOLYLINE
  5
93
100
AcDbEntity
  8
LAYER22
370
    18
390
0
  6
Continuous
 62
     1
100
AcDbPolyline
 90
        2
 70
     0
 10
-148.195313
 20
-1248.589844
 10
-148.195313
 20
-1228.589844
  0
LWPOLYLINE
  5
94
100
AcDbEntity
  8
LAYER22
370
    18
390
0
  6
Continuous
 62
     1
100
AcDbPolyline
 90
        2
 70
     0
 10
-143.195313
 20
-1248.589844
 10
-143.195313
 20
-1228.589844
  0
LWPOLYLINE
  5
95
100
AcDbEntity
  8
LAYER22
370
    18
390
0
  6
Continuous
 62
     1
100
AcDbPolyline
 90
        2
 70
     0
 10
-139.195313
 20
-1248.589844
 10
-139.195313
 20
-1228.589844
  0
LWPOLYLINE
  5
96
100
AcDbEntity
  8
LAYER22
370
    18
390
0
  6
Continuous
 62
     1
100
AcDbPolyline
 90
        2
 70
     0
 10
-133.195313
 20
-1248.589844
 10
-133.195313
 20
-1228.589844
  0
LWPOLYLINE
  5
97
100
AcDbEntity
  8
LAYER22
370
    18
390
0
  6
Continuous
 62
     1
100
AcDbPolyline
 90
        2
 70
     0
 10
-129.195313
 20
-1248.589844
 10
-129.195313
 20
-1228.589844
  0
LWPOLYLINE
  5
98
100
AcDbEntity
  8
LAYER22
370
    18
390
0
  6
Continuous
 62
     1
100
AcDbPolyline
 90
        2
 70
     0
 10
-123.195313
 20
-1248.589844
 10
-123.195313
 20
-1228.589844
  0
LWPOLYLINE
  5
99
100
AcDbEntity
  8
LAYER22
370
    18
390
0
  6
Continuous
 62
     1
100
AcDbPolyline
 90
        2
 70
     0
 10
-119.195313
 20
-1248.589844
 10
-119.195313
 20
-1228.589844
  0
LWPOLYLINE
  5
9A
100
AcDbEntity
  8
LAYER22
370
    18
390
0
  6
Continuous
 62
     1
100
AcDbPolyline
 90
        2
 70
     0
 10
-113.195313
 20
-1248.589844
 10
-113.195313
 20
-1228.589844
  0
LWPOLYLINE
  5
9B
100
AcDbEntity
  8
LAYER22
370
    18
390
0
  6
Continuous
 62
     1
100
AcDbPolyline
 90
        2
 70
     0
 10
-109.195313
 20
-1248.589844
 10
-109.195313
 20
-1228.589844
  0
LWPOLYLINE
  5
9C
100
AcDbEntity
  8
LAYER22
370
    18
390
0
  6
Continuous
 62
     1
100
AcDbPolyline
 90
        2
 70
     0
 10
-103.195313
 20
-1248.589844
 10
-103.195313
 20
-1228.589844
  0
LWPOLYLINE
  5
9D
100
AcDbEntity
  8
LAYER22
370
    18
390
0
  6
Continuous
 62
     1
100
AcDbPolyline
 90
        2
 70
     0
 10
-99.195313
 20
-1248.589844
 10
-99.195313
 20
-1228.589844
  0
LWPOLYLINE
  5
9E
100
AcDbEntity
  8
LAYER22
370
    18
390
0
  6
Continuous
 62
     1
100
AcDbPolyline
 90
        2
 70
     0
 10
-93.195313
 20
-1248.589844
 10
-93.195313
 20
-1228.589844
  0
LWPOLYLINE
  5
9F
100
AcDbEntity
  8
LAYER22
370
    18
390
0
  6
Continuous
 62
     1
100
AcDbPolyline
 90
        2
 70
     0
 10
-89.195313
 20
-1248.589844
 10
-89.195313
 20
-1228.589844
  0
LWPOLYLINE
  5
A0
100
AcDbEntity
  8
LAYER22
370
    18
390
0
  6
Continuous
 62
     1
100
AcDbPolyline
 90
        2
 70
     0
 10
-83.195313
 20
-1248.589844
 10
-83.195313
 20
-1228.589844
  0
LWPOLYLINE
  5
A1
100
AcDbEntity
  8
LAYER22
370
    18
390
0
  6
Continuous
 62
     1
100
AcDbPolyline
 90
        2
 70
     0
 10
-79.195313
 20
-1248.589844
 10
-79.195313
 20
-1228.589844
  0
LWPOLYLINE
  5
A2
100
AcDbEntity
  8
LAYER22
370
    18
390
0
  6
Continuous
 62
     1
100
AcDbPolyline
 90
        2
 70
     0
 10
-73.195313
 20
-1248.589844
 10
-73.195313
 20
-1228.589844
  0
LWPOLYLINE
  5
A3
100
AcDbEntity
  8
LAYER22
370
    18
390
0
  6
Continuous
 62
     1
100
AcDbPolyline
 90
        2
 70
     0
 10
-69.195313
 20
-1248.589844
 10
-69.195313
 20
-1228.589844
  0
LWPOLYLINE
  5
A4
100
AcDbEntity
  8
LAYER22
370
    18
390
0
  6
Continuous
 62
     1
100
AcDbPolyline
 90
        2
 70
     0
 10
-63.195313
 20
-1248.589844
 10
-63.195313
 20
-1228.589844
  0
LWPOLYLINE
  5
A5
100
AcDbEntity
  8
LAYER22
370
    18
390
0
  6
Continuous
 62
     1
100
AcDbPolyline
 90
        2
 70
     0
 10
-59.195313
 20
-1248.589844
 10
-59.195313
 20
-1228.589844
  0
LWPOLYLINE
  5
A6
100
AcDbEntity
  8
LAYER22
370
    18
390
0
  6
Continuous
 62
     1
100
AcDbPolyline
 90
        2
 70
     0
 10
-53.195313
 20
-1248.589844
 10
-53.195313
 20
-1228.589844
  0
LWPOLYLINE
  5
A7
100
AcDbEntity
  8
LAYER22
370
    18
390
0
  6
Continuous
 62
     1
100
AcDbPolyline
 90
        2
 70
     0
 10
-49.195313
 20
-1248.589844
 10
-49.195313
 20
-1228.589844
  0
LWPOLYLINE
  5
A8
100
AcDbEntity
  8
LAYER22
370
    18
390
0
  6
Continuous
 62
     1
100
AcDbPolyline
 90
        2
 70
     0
 10
-43.195313
 20
-1248.589844
 10
-43.195313
 20
-1228.589844
  0
LWPOLYLINE
  5
A9
100
AcDbEntity
  8
LAYER22
370
    18
390
0
  6
Continuous
 62
     1
100
AcDbPolyline
 90
        2
 70
     0
 10
-39.195313
 20
-1248.589844
 10
-39.195313
 20
-1228.589844
  0
LWPOLYLINE
  5
AA
100
AcDbEntity
  8
LAYER22
370
    18
390
0
  6
Continuous
 62
     1
100
AcDbPolyline
 90
        2
 70
     0
 10
-33.195313
 20
-1248.589844
 10
-33.195313
 20
-1228.589844
  0
LWPOLYLINE
  5
AB
100
AcDbEntity
  8
LAYER22
370
    18
390
0
  6
Continuous
 62
     1
100
AcDbPolyline
 90
        2
 70
     0
 10
-29.195313
 20
-1248.589844
 10
-29.195313
 20
-1228.589844
  0
LWPOLYLINE
  5
AC
100
AcDbEntity
  8
LAYER22
370
    18
390
0
  6
Continuous
 62
     1
100
AcDbPolyline
 90
        2
 70
     0
 10
-23.195313
 20
-1248.589844
 10
-23.195313
 20
-1228.589844
  0
LWPOLYLINE
  5
AD
100
AcDbEntity
  8
LAYER22
370
    18
390
0
  6
Continuous
 62
     1
100
AcDbPolyline
 90
        2
 70
     0
 10
-19.195313
 20
-1248.589844
 10
-19.195313
 20
-1228.589844
  0
LWPOLYLINE
  5
AE
100
AcDbEntity
  8
LAYER22
370
    18
390
0
  6
Continuous
 62
     1
100
AcDbPolyline
 90
        2
 70
     0
 10
-13.195313
 20
-1248.589844
 10
-13.195313
 20
-1228.589844
  0
LWPOLYLINE
  5
AF
100
AcDbEntity
  8
LAYER22
370
    18
390
0
  6
Continuous
 62
     1
100
AcDbPolyline
 90
        2
 70
     0
 10
-9.195313
 20
-1248.589844
 10
-9.195313
 20
-1228.589844
  0
LWPOLYLINE
  5
B0
100
AcDbEntity
  8
LAYER22
370
    18
390
0
  6
Continuous
 62
     1
100
AcDbPolyline
 90
        2
 70
     0
 10
-3.195313
 20
-1248.589844
 10
-3.195313
 20
-1228.589844
  0
LWPOLYLINE
  5
B1
100
AcDbEntity
  8
LAYER22
370
    18
390
0
  6
Continuous
 62
     1
100
AcDbPolyline
 90
        2
 70
     0
 10
0.804688
 20
-1248.589844
 10
0.804688
 20
-1228.589844
  0
LWPOLYLINE
  5
B2
100
AcDbEntity
  8
LAYER22
370
    18
390
0
  6
Continuous
 62
     1
100
AcDbPolyline
 90
        2
 70
     0
 10
6.804688
 20
-1248.589844
 10
6.804688
 20
-1228.589844
  0
LWPOLYLINE
  5
B3
100
AcDbEntity
  8
LAYER22
370
    18
390
0
  6
Continuous
 62
     1
100
AcDbPolyline
 90
        2
 70
     0
 10
10.804688
 20
-1248.589844
 10
10.804688
 20
-1228.589844
  0
LWPOLYLINE
  5
B4
100
AcDbEntity
  8
LAYER22
370
    18
390
0
  6
Continuous
 62
     1
100
AcDbPolyline
 90
        2
 70
     0
 10
16.804688
 20
-1248.589844
 10
16.804688
 20
-1228.589844
  0
LWPOLYLINE
  5
B5
100
AcDbEntity
  8
LAYER22
370
    18
390
0
  6
Continuous
 62
     1
100
AcDbPolyline
 90
        2
 70
     0
 10
20.804688
 20
-1248.589844
 10
20.804688
 20
-1228.589844
  0
LWPOLYLINE
  5
B6
100
AcDbEntity
  8
LAYER22
370
    18
390
0
  6
Continuous
 62
     1
100
AcDbPolyline
 90
        2
 70
     0
 10
26.804688
 20
-1248.589844
 10
26.804688
 20
-1228.589844
  0
LWPOLYLINE
  5
B7
100
AcDbEntity
  8
LAYER22
370
    18
390
0
  6
Continuous
 62
     1
100
AcDbPolyline
 90
        2
 70
     0
 10
30.804688
 20
-1248.589844
 10
30.804688
 20
-1228.589844
  0
LWPOLYLINE
  5
B8
100
AcDbEntity
  8
LAYER22
370
    18
390
0
  6
Continuous
 62
     1
100
AcDbPolyline
 90
        2
 70
     0
 10
36.804688
 20
-1248.589844
 10
36.804688
 20
-1228.589844
  0
LWPOLYLINE
  5
B9
100
AcDbEntity
  8
LAYER22
370
    18
390
0
  6
Continuous
 62
     1
100
AcDbPolyline
 90
        2
 70
     0
 10
40.804688
 20
-1248.589844
 10
40.804688
 20
-1228.589844
  0
LWPOLYLINE
  5
BA
100
AcDbEntity
  8
LAYER22
370
    18
390
0
  6
Continuous
 62
     1
100
AcDbPolyline
 90
        2
 70
     0
 10
46.804688
 20
-1248.589844
 10
46.804688
 20
-1228.589844
  0
LWPOLYLINE
  5
BB
100
AcDbEntity
  8
LAYER22
370
    18
390
0
  6
Continuous
 62
     1
100
AcDbPolyline
 90
        2
 70
     0
 10
50.804688
 20
-1248.589844
 10
50.804688
 20
-1228.589844
  0
LWPOLYLINE
  5
BC
100
AcDbEntity
  8
LAYER22
370
    18
390
0
  6
Continuous
 62
     1
100
AcDbPolyline
 90
        2
 70
     0
 10
56.804688
 20
-1248.589844
 10
56.804688
 20
-1228.589844
  0
LWPOLYLINE
  5
BD
100
AcDbEntity
  8
LAYER22
370
    18
390
0
  6
Continuous
 62
     1
100
AcDbPolyline
 90
        2
 70
     0
 10
60.804688
 20
-1248.589844
 10
60.804688
 20
-1228.589844
  0
LWPOLYLINE
  5
BE
100
AcDbEntity
  8
LAYER22
370
    18
390
0
  6
Continuous
 62
     1
100
AcDbPolyline
 90
        2
 70
     0
 10
66.804688
 20
-1248.589844
 10
66.804688
 20
-1228.589844
  0
LWPOLYLINE
  5
BF
100
AcDbEntity
  8
LAYER22
370
    18
390
0
  6
Continuous
 62
     1
100
AcDbPolyline
 90
        2
 70
     0
 10
70.804688
 20
-1248.589844
 10
70.804688
 20
-1228.589844
  0
LWPOLYLINE
  5
C0
100
AcDbEntity
  8
LAYER22
370
    18
390
0
  6
Continuous
 62
     1
100
AcDbPolyline
 90
        2
 70
     0
 10
76.804688
 20
-1248.589844
 10
76.804688
 20
-1228.589844
  0
LWPOLYLINE
  5
C1
100
AcDbEntity
  8
LAYER22
370
    18
390
0
  6
Continuous
 62
     1
100
AcDbPolyline
 90
        2
 70
     0
 10
80.804688
 20
-1248.589844
 10
80.804688
 20
-1228.589844
  0
LWPOLYLINE
  5
C2
100
AcDbEntity
  8
LAYER22
370
    18
390
0
  6
Continuous
 62
     1
100
AcDbPolyline
 90
        2
 70
     0
 10
86.804688
 20
-1248.589844
 10
86.804688
 20
-1228.589844
  0
LWPOLYLINE
  5
C3
100
AcDbEntity
  8
LAYER22
370
    18
390
0
  6
Continuous
 62
     1
100
AcDbPolyline
 90
        2
 70
     0
 10
90.804688
 20
-1248.589844
 10
90.804688
 20
-1228.589844
  0
LWPOLYLINE
  5
C4
100
AcDbEntity
  8
LAYER22
370
    18
390
0
  6
Continuous
 62
     1
100
AcDbPolyline
 90
        2
 70
     0
 10
96.804688
 20
-1248.589844
 10
96.804688
 20
-1228.589844
  0
LWPOLYLINE
  5
C5
100
AcDbEntity
  8
LAYER22
370
    18
390
0
  6
Continuous
 62
     1
100
AcDbPolyline
 90
        2
 70
     0
 10
104.804688
 20
-1248.589844
 10
104.804688
 20
-1228.589844
  0
LWPOLYLINE
  5
C6
100
AcDbEntity
  8
LAYER22
370
    18
390
0
  6
Continuous
 62
     1
100
AcDbPolyline
 90
        2
 70
     0
 10
108.804688
 20
-1248.589844
 10
108.804688
 20
-1228.589844
  0
LWPOLYLINE
  5
C7
100
AcDbEntity
  8
LAYER22
370
    18
390
0
  6
Continuous
 62
     1
100
AcDbPolyline
 90
        2
 70
     0
 10
114.804688
 20
-1248.589844
 10
114.804688
 20
-1228.589844
  0
LWPOLYLINE
  5
C8
100
AcDbEntity
  8
LAYER22
370
    18
390
0
  6
Continuous
 62
     1
100
AcDbPolyline
 90
        2
 70
     0
 10
118.804688
 20
-1248.589844
 10
118.804688
 20
-1228.589844
  0
LWPOLYLINE
  5
C9
100
AcDbEntity
  8
LAYER22
370
    18
390
0
  6
Continuous
 62
     1
100
AcDbPolyline
 90
        2
 70
     0
 10
124.804688
 20
-1248.589844
 10
124.804688
 20
-1228.589844
  0
LWPOLYLINE
  5
CA
100
AcDbEntity
  8
LAYER22
370
    18
390
0
  6
Continuous
 62
     1
100
AcDbPolyline
 90
        2
 70
     0
 10
128.804688
 20
-1248.589844
 10
128.804688
 20
-1228.589844
  0
LWPOLYLINE
  5
CB
100
AcDbEntity
  8
LAYER22
370
    18
390
0
  6
Continuous
 62
     1
100
AcDbPolyline
 90
        2
 70
     0
 10
134.804688
 20
-1248.589844
 10
134.804688
 20
-1228.589844
  0
LWPOLYLINE
  5
CC
100
AcDbEntity
  8
LAYER22
370
    18
390
0
  6
Continuous
 62
     1
100
AcDbPolyline
 90
        2
 70
     0
 10
138.804688
 20
-1248.589844
 10
138.804688
 20
-1228.589844
  0
LWPOLYLINE
  5
CD
100
AcDbEntity
  8
LAYER22
370
    18
390
0
  6
Continuous
 62
     1
100
AcDbPolyline
 90
        2
 70
     0
 10
144.804688
 20
-1248.589844
 10
144.804688
 20
-1228.589844
  0
LWPOLYLINE
  5
CE
100
AcDbEntity
  8
LAYER22
370
    18
390
0
  6
Continuous
 62
     1
100
AcDbPolyline
 90
        2
 70
     0
 10
148.804688
 20
-1248.589844
 10
148.804688
 20
-1228.589844
  0
LWPOLYLINE
  5
CF
100
AcDbEntity
  8
LAYER22
370
    18
390
0
  6
Continuous
 62
     1
100
AcDbPolyline
 90
        2
 70
     0
 10
154.804688
 20
-1248.589844
 10
154.804688
 20
-1228.589844
  0
LWPOLYLINE
  5
D0
100
AcDbEntity
  8
LAYER22
370
    18
390
0
  6
Continuous
 62
     1
100
AcDbPolyline
 90
        2
 70
     0
 10
158.804688
 20
-1248.589844
 10
158.804688
 20
-1228.589844
  0
LWPOLYLINE
  5
D1
100
AcDbEntity
  8
LAYER22
370
    18
390
0
  6
Continuous
 62
     1
100
AcDbPolyline
 90
        2
 70
     0
 10
164.804688
 20
-1248.589844
 10
164.804688
 20
-1228.589844
  0
LWPOLYLINE
  5
D2
100
AcDbEntity
  8
LAYER22
370
    18
390
0
  6
Continuous
 62
     1
100
AcDbPolyline
 90
        2
 70
     0
 10
168.804688
 20
-1248.589844
 10
168.804688
 20
-1228.589844
  0
LWPOLYLINE
  5
D3
100
AcDbEntity
  8
LAYER22
370
    18
390
0
  6
Continuous
 62
     1
100
AcDbPolyline
 90
        2
 70
     0
 10
174.804688
 20
-1248.589844
 10
174.804688
 20
-1228.589844
  0
LWPOLYLINE
  5
D4
100
AcDbEntity
  8
LAYER22
370
    18
390
0
  6
Continuous
 62
     1
100
AcDbPolyline
 90
        2
 70
     0
 10
178.804688
 20
-1248.589844
 10
178.804688
 20
-1228.589844
  0
LWPOLYLINE
  5
D5
100
AcDbEntity
  8
LAYER22
370
    18
390
0
  6
Continuous
 62
     1
100
AcDbPolyline
 90
        2
 70
     0
 10
184.804688
 20
-1248.589844
 10
184.804688
 20
-1228.589844
  0
LWPOLYLINE
  5
D6
100
AcDbEntity
  8
LAYER22
370
    18
390
0
  6
Continuous
 62
     1
100
AcDbPolyline
 90
        2
 70
     0
 10
188.804688
 20
-1248.589844
 10
188.804688
 20
-1228.589844
  0
LWPOLYLINE
  5
D7
100
AcDbEntity
  8
LAYER22
370
    18
390
0
  6
Continuous
 62
     1
100
AcDbPolyline
 90
        2
 70
     0
 10
194.804688
 20
-1248.589844
 10
194.804688
 20
-1228.589844
  0
LWPOLYLINE
  5
D8
100
AcDbEntity
  8
LAYER22
370
    18
390
0
  6
Continuous
 62
     1
100
AcDbPolyline
 90
        2
 70
     0
 10
198.804688
 20
-1248.589844
 10
198.804688
 20
-1228.589844
  0
LWPOLYLINE
  5
D9
100
AcDbEntity
  8
LAYER22
370
    18
390
0
  6
Continuous
 62
     1
100
AcDbPolyline
 90
        2
 70
     0
 10
204.804688
 20
-1248.589844
 10
204.804688
 20
-1228.589844
  0
LWPOLYLINE
  5
DA
100
AcDbEntity
  8
LAYER22
370
    18
390
0
  6
Continuous
 62
     1
100
AcDbPolyline
 90
        2
 70
     0
 10
208.804688
 20
-1248.589844
 10
208.804688
 20
-1228.589844
  0
LWPOLYLINE
  5
DB
100
AcDbEntity
  8
LAYER22
370
    18
390
0
  6
Continuous
 62
     1
100
AcDbPolyline
 90
        2
 70
     0
 10
214.804688
 20
-1248.589844
 10
214.804688
 20
-1228.589844
  0
LWPOLYLINE
  5
DC
100
AcDbEntity
  8
LAYER22
370
    18
390
0
  6
Continuous
 62
     1
100
AcDbPolyline
 90
        2
 70
     0
 10
218.804688
 20
-1248.589844
 10
218.804688
 20
-1228.589844
  0
LWPOLYLINE
  5
DD
100
AcDbEntity
  8
LAYER22
370
    18
390
0
  6
Continuous
 62
     1
100
AcDbPolyline
 90
        2
 70
     0
 10
224.804688
 20
-1248.589844
 10
224.804688
 20
-1228.589844
  0
LWPOLYLINE
  5
DE
100
AcDbEntity
  8
LAYER22
370
    18
390
0
  6
Continuous
 62
     1
100
AcDbPolyline
 90
        2
 70
     0
 10
228.804688
 20
-1248.589844
 10
228.804688
 20
-1228.589844
  0
LWPOLYLINE
  5
DF
100
AcDbEntity
  8
LAYER22
370
    18
390
0
  6
Continuous
 62
     1
100
AcDbPolyline
 90
        2
 70
     0
 10
234.804688
 20
-1248.589844
 10
234.804688
 20
-1228.589844
  0
LWPOLYLINE
  5
E0
100
AcDbEntity
  8
LAYER22
370
    18
390
0
  6
Continuous
 62
     1
100
AcDbPolyline
 90
        2
 70
     0
 10
238.804688
 20
-1248.589844
 10
238.804688
 20
-1228.589844
  0
LWPOLYLINE
  5
E1
100
AcDbEntity
  8
LAYER22
370
    18
390
0
  6
Continuous
 62
     1
100
AcDbPolyline
 90
        2
 70
     0
 10
244.804688
 20
-1248.589844
 10
244.804688
 20
-1228.589844
  0
LWPOLYLINE
  5
E2
100
AcDbEntity
  8
LAYER22
370
    18
390
0
  6
Continuous
 62
     1
100
AcDbPolyline
 90
        2
 70
     0
 10
248.804688
 20
-1248.589844
 10
248.804688
 20
-1228.589844
  0
LWPOLYLINE
  5
E3
100
AcDbEntity
  8
LAYER22
370
    18
390
0
  6
Continuous
 62
     1
100
AcDbPolyline
 90
        2
 70
     0
 10
254.804688
 20
-1248.589844
 10
254.804688
 20
-1228.589844
  0
LWPOLYLINE
  5
E4
100
AcDbEntity
  8
LAYER22
370
    18
390
0
  6
Continuous
 62
     1
100
AcDbPolyline
 90
        2
 70
     0
 10
258.804688
 20
-1248.589844
 10
258.804688
 20
-1228.589844
  0
LWPOLYLINE
  5
E5
100
AcDbEntity
  8
LAYER22
370
    18
390
0
  6
Continuous
 62
     1
100
AcDbPolyline
 90
        2
 70
     0
 10
264.804688
 20
-1248.589844
 10
264.804688
 20
-1228.589844
  0
LWPOLYLINE
  5
E6
100
AcDbEntity
  8
LAYER22
370
    18
390
0
  6
Continuous
 62
     1
100
AcDbPolyline
 90
        2
 70
     0
 10
268.804688
 20
-1248.589844
 10
268.804688
 20
-1228.589844
  0
LWPOLYLINE
  5
E7
100
AcDbEntity
  8
LAYER22
370
    18
390
0
  6
Continuous
 62
     1
100
AcDbPolyline
 90
        2
 70
     0
 10
274.804688
 20
-1248.589844
 10
274.804688
 20
-1228.589844
  0
LWPOLYLINE
  5
E8
100
AcDbEntity
  8
LAYER22
370
    18
390
0
  6
Continuous
 62
     1
100
AcDbPolyline
 90
        2
 70
     0
 10
278.804688
 20
-1248.589844
 10
278.804688
 20
-1228.589844
  0
LWPOLYLINE
  5
E9
100
AcDbEntity
  8
LAYER22
370
    18
390
0
  6
Continuous
 62
     1
100
AcDbPolyline
 90
        2
 70
     0
 10
284.804688
 20
-1248.589844
 10
284.804688
 20
-1228.589844
  0
LWPOLYLINE
  5
EA
100
AcDbEntity
  8
LAYER22
370
    18
390
0
  6
Continuous
 62
     1
100
AcDbPolyline
 90
        2
 70
     0
 10
288.804688
 20
-1248.589844
 10
288.804688
 20
-1228.589844
  0
LWPOLYLINE
  5
EB
100
AcDbEntity
  8
LAYER22
370
    18
390
0
  6
Continuous
 62
     1
100
AcDbPolyline
 90
        2
 70
     0
 10
294.804688
 20
-1248.589844
 10
294.804688
 20
-1228.589844
  0
LWPOLYLINE
  5
EC
100
AcDbEntity
  8
LAYER22
370
    18
390
0
  6
Continuous
 62
     1
100
AcDbPolyline
 90
        2
 70
     0
 10
298.804688
 20
-1248.589844
 10
298.804688
 20
-1228.589844
  0
LWPOLYLINE
  5
ED
100
AcDbEntity
  8
LAYER22
370
    18
390
0
  6
Continuous
 62
     1
100
AcDbPolyline
 90
        2
 70
     0
 10
304.804688
 20
-1248.589844
 10
304.804688
 20
-1228.589844
  0
LWPOLYLINE
  5
EE
100
AcDbEntity
  8
LAYER22
370
    18
390
0
  6
Continuous
 62
     1
100
AcDbPolyline
 90
        2
 70
     0
 10
308.804688
 20
-1248.589844
 10
308.804688
 20
-1228.589844
  0
LWPOLYLINE
  5
EF
100
AcDbEntity
  8
LAYER22
370
    18
390
0
  6
Continuous
 62
     1
100
AcDbPolyline
 90
        2
 70
     0
 10
314.804688
 20
-1248.589844
 10
314.804688
 20
-1228.589844
  0
LWPOLYLINE
  5
F0
100
AcDbEntity
  8
LAYER22
370
    18
390
0
  6
Continuous
 62
     1
100
AcDbPolyline
 90
        2
 70
     0
 10
318.804688
 20
-1248.589844
 10
318.804688
 20
-1228.589844
  0
LWPOLYLINE
  5
F1
100
AcDbEntity
  8
LAYER22
370
    18
390
0
  6
Continuous
 62
     1
100
AcDbPolyline
 90
        2
 70
     0
 10
324.804688
 20
-1248.589844
 10
324.804688
 20
-1228.589844
  0
LWPOLYLINE
  5
F2
100
AcDbEntity
  8
LAYER22
370
    18
390
0
  6
Continuous
 62
     1
100
AcDbPolyline
 90
        2
 70
     0
 10
328.804688
 20
-1248.589844
 10
328.804688
 20
-1228.589844
  0
LWPOLYLINE
  5
F3
100
AcDbEntity
  8
LAYER22
370
    18
390
0
  6
Continuous
 62
     1
100
AcDbPolyline
 90
        2
 70
     0
 10
334.804688
 20
-1248.589844
 10
334.804688
 20
-1228.589844
  0
LWPOLYLINE
  5
F4
100
AcDbEntity
  8
LAYER22
370
    18
390
0
  6
Continuous
 62
     1
100
AcDbPolyline
 90
        2
 70
     0
 10
338.804688
 20
-1248.589844
 10
338.804688
 20
-1228.589844
  0
LWPOLYLINE
  5
F5
100
AcDbEntity
  8
LAYER22
370
    18
390
0
  6
Continuous
 62
     1
100
AcDbPolyline
 90
        2
 70
     0
 10
343.804688
 20
-1248.589844
 10
343.804688
 20
-1228.589844
  0
LWPOLYLINE
  5
F6
100
AcDbEntity
  8
LAYER22
370
    18
390
0
  6
Continuous
 62
     1
100
AcDbPolyline
 90
        2
 70
     0
 10
348.804688
 20
-1248.589844
 10
348.804688
 20
-1228.589844
  0
LWPOLYLINE
  5
F7
100
AcDbEntity
  8
LAYER22
370
    18
390
0
  6
Continuous
 62
     1
100
AcDbPolyline
 90
        2
 70
     0
 10
353.804688
 20
-1248.589844
 10
353.804688
 20
-1228.589844
  0
LWPOLYLINE
  5
F8
100
AcDbEntity
  8
LAYER22
370
    18
390
0
  6
Continuous
 62
     1
100
AcDbPolyline
 90
        2
 70
     0
 10
358.804688
 20
-1248.589844
 10
358.804688
 20
-1228.589844
  0
LWPOLYLINE
  5
F9
100
AcDbEntity
  8
LAYER22
370
    18
390
0
  6
Continuous
 62
     1
100
AcDbPolyline
 90
        2
 70
     0
 10
363.804688
 20
-1248.589844
 10
363.804688
 20
-1228.589844
  0
LWPOLYLINE
  5
FA
100
AcDbEntity
  8
LAYER22
370
    18
390
0
  6
Continuous
 62
     1
100
AcDbPolyline
 90
        2
 70
     0
 10
368.804688
 20
-1248.589844
 10
368.804688
 20
-1228.589844
  0
LWPOLYLINE
  5
FB
100
AcDbEntity
  8
LAYER22
370
    18
390
0
  6
Continuous
 62
     1
100
AcDbPolyline
 90
        2
 70
     0
 10
373.804688
 20
-1248.589844
 10
373.804688
 20
-1228.589844
  0
LWPOLYLINE
  5
FC
100
AcDbEntity
  8
LAYER22
370
    18
390
0
  6
Continuous
 62
     1
100
AcDbPolyline
 90
        2
 70
     0
 10
378.804688
 20
-1248.589844
 10
378.804688
 20
-1228.589844
  0
LWPOLYLINE
  5
FD
100
AcDbEntity
  8
LAYER22
370
    18
390
0
  6
Continuous
 62
     1
100
AcDbPolyline
 90
        2
 70
     0
 10
383.804688
 20
-1248.589844
 10
383.804688
 20
-1228.589844
  0
LWPOLYLINE
  5
FE
100
AcDbEntity
  8
LAYER22
370
    18
390
0
  6
Continuous
 62
     1
100
AcDbPolyline
 90
        2
 70
     0
 10
388.804688
 20
-1248.589844
 10
388.804688
 20
-1228.589844
  0
LWPOLYLINE
  5
FF
100
AcDbEntity
  8
LAYER22
370
    18
390
0
  6
Continuous
 62
     1
100
AcDbPolyline
 90
        2
 70
     0
 10
393.804688
 20
-1248.589844
 10
393.804688
 20
-1228.589844
  0
LWPOLYLINE
  5
100
100
AcDbEntity
  8
LAYER22
370
    18
390
0
  6
Continuous
 62
     1
100
AcDbPolyline
 90
        2
 70
     0
 10
398.804688
 20
-1248.589844
 10
398.804688
 20
-1228.589844
  0
LWPOLYLINE
  5
101
100
AcDbEntity
  8
LAYER22
370
    18
390
0
  6
Continuous
 62
     1
100
AcDbPolyline
 90
        2
 70
     0
 10
403.804688
 20
-1248.589844
 10
403.804688
 20
-1228.589844
  0
LWPOLYLINE
  5
102
100
AcDbEntity
  8
LAYER22
370
    18
390
0
  6
Continuous
 62
     1
100
AcDbPolyline
 90
        2
 70
     0
 10
408.804688
 20
-1248.589844
 10
408.804688
 20
-1228.589844
  0
LWPOLYLINE
  5
103
100
AcDbEntity
  8
LAYER22
370
    18
390
0
  6
Continuous
 62
     1
100
AcDbPolyline
 90
        2
 70
     0
 10
413.804688
 20
-1248.589844
 10
413.804688
 20
-1228.589844
  0
LWPOLYLINE
  5
104
100
AcDbEntity
  8
LAYER22
370
    18
390
0
  6
Continuous
 62
     1
100
AcDbPolyline
 90
        2
 70
     0
 10
418.804688
 20
-1248.589844
 10
418.804688
 20
-1228.589844
  0
LWPOLYLINE
  5
105
100
AcDbEntity
  8
LAYER22
370
    18
390
0
  6
Continuous
 62
     1
100
AcDbPolyline
 90
        2
 70
     0
 10
423.804688
 20
-1248.589844
 10
423.804688
 20
-1228.589844
  0
LWPOLYLINE
  5
106
100
AcDbEntity
  8
LAYER22
370
    18
390
0
  6
Continuous
 62
     1
100
AcDbPolyline
 90
        2
 70
     0
 10
428.804688
 20
-1248.589844
 10
428.804688
 20
-1228.589844
  0
LWPOLYLINE
  5
107
100
AcDbEntity
  8
LAYER22
370
    18
390
0
  6
Continuous
 62
     1
100
AcDbPolyline
 90
        2
 70
     0
 10
433.804688
 20
-1248.589844
 10
433.804688
 20
-1228.589844
  0
LWPOLYLINE
  5
108
100
AcDbEntity
  8
LAYER22
370
    18
390
0
  6
Continuous
 62
     1
100
AcDbPolyline
 90
        2
 70
     0
 10
438.804688
 20
-1248.589844
 10
438.804688
 20
-1228.589844
  0
LWPOLYLINE
  5
109
100
AcDbEntity
  8
LAYER22
370
    18
390
0
  6
Continuous
 62
     1
100
AcDbPolyline
 90
        2
 70
     0
 10
443.804688
 20
-1248.589844
 10
443.804688
 20
-1228.589844
  0
LWPOLYLINE
  5
10A
100
AcDbEntity
  8
LAYER22
370
    18
390
0
  6
Continuous
 62
     1
100
AcDbPolyline
 90
        2
 70
     0
 10
448.804688
 20
-1248.589844
 10
448.804688
 20
-1228.589844
  0
LWPOLYLINE
  5
10B
100
AcDbEntity
  8
LAYER22
370
    18
390
0
  6
Continuous
 62
     1
100
AcDbPolyline
 90
        2
 70
     0
 10
453.804688
 20
-1248.589844
 10
453.804688
 20
-1228.589844
  0
LWPOLYLINE
  5
10C
100
AcDbEntity
  8
LAYER22
370
    18
390
0
  6
Continuous
 62
     1
100
AcDbPolyline
 90
        2
 70
     0
 10
458.804688
 20
-1248.589844
 10
458.804688
 20
-1228.589844
  0
LWPOLYLINE
  5
10D
100
AcDbEntity
  8
LAYER22
370
    18
390
0
  6
Continuous
 62
     1
100
AcDbPolyline
 90
        2
 70
     0
 10
463.804688
 20
-1248.589844
 10
463.804688
 20
-1228.589844
  0
LWPOLYLINE
  5
10E
100
AcDbEntity
  8
LAYER22
370
    18
390
0
  6
Continuous
 62
     1
100
AcDbPolyline
 90
        2
 70
     0
 10
468.804688
 20
-1248.589844
 10
468.804688
 20
-1228.589844
  0
LWPOLYLINE
  5
10F
100
AcDbEntity
  8
LAYER22
370
    18
390
0
  6
Continuous
 62
     1
100
AcDbPolyline
 90
        2
 70
     0
 10
473.804688
 20
-1248.589844
 10
473.804688
 20
-1228.589844
  0
LWPOLYLINE
  5
110
100
AcDbEntity
  8
LAYER22
370
    18
390
0
  6
Continuous
 62
     1
100
AcDbPolyline
 90
        2
 70
     0
 10
478.804688
 20
-1248.589844
 10
478.804688
 20
-1228.589844
  0
LWPOLYLINE
  5
111
100
AcDbEntity
  8
LAYER22
370
    18
390
0
  6
Continuous
 62
     1
100
AcDbPolyline
 90
        2
 70
     0
 10
483.804688
 20
-1248.589844
 10
483.804688
 20
-1228.589844
  0
LWPOLYLINE
  5
112
100
AcDbEntity
  8
LAYER22
370
    18
390
0
  6
Continuous
 62
     1
100
AcDbPolyline
 90
        2
 70
     0
 10
488.804688
 20
-1248.589844
 10
488.804688
 20
-1228.589844
  0
LWPOLYLINE
  5
113
100
AcDbEntity
  8
LAYER22
370
    18
390
0
  6
Continuous
 62
     1
100
AcDbPolyline
 90
        2
 70
     0
 10
493.804688
 20
-1248.589844
 10
493.804688
 20
-1228.589844
  0
LWPOLYLINE
  5
114
100
AcDbEntity
  8
LAYER22
370
    18
390
0
  6
Continuous
 62
     1
100
AcDbPolyline
 90
        2
 70
     0
 10
498.804688
 20
-1248.589844
 10
498.804688
 20
-1228.589844
  0
LWPOLYLINE
  5
115
100
AcDbEntity
  8
LAYER22
370
    18
390
0
  6
Continuous
 62
     1
100
AcDbPolyline
 90
        2
 70
     0
 10
503.804688
 20
-1248.589844
 10
503.804688
 20
-1228.589844
  0
LWPOLYLINE
  5
116
100
AcDbEntity
  8
LAYER22
370
    18
390
0
  6
Continuous
 62
     1
100
AcDbPolyline
 90
        2
 70
     0
 10
508.804688
 20
-1248.589844
 10
508.804688
 20
-1228.589844
  0
LWPOLYLINE
  5
117
100
AcDbEntity
  8
LAYER22
370
    18
390
0
  6
Continuous
 62
     1
100
AcDbPolyline
 90
        2
 70
     0
 10
513.804688
 20
-1248.589844
 10
513.804688
 20
-1228.589844
  0
LWPOLYLINE
  5
118
100
AcDbEntity
  8
LAYER22
370
    18
390
0
  6
Continuous
 62
     1
100
AcDbPolyline
 90
        2
 70
     0
 10
518.804688
 20
-1248.589844
 10
518.804688
 20
-1228.589844
  0
LWPOLYLINE
  5
119
100
AcDbEntity
  8
LAYER22
370
    18
390
0
  6
Continuous
 62
     1
100
AcDbPolyline
 90
        2
 70
     0
 10
523.804688
 20
-1248.589844
 10
523.804688
 20
-1228.589844
  0
LWPOLYLINE
  5
11A
100
AcDbEntity
  8
LAYER22
370
    18
390
0
  6
Continuous
 62
     1
100
AcDbPolyline
 90
        2
 70
     0
 10
528.804688
 20
-1248.589844
 10
528.804688
 20
-1228.589844
  0
LWPOLYLINE
  5
11B
100
AcDbEntity
  8
LAYER22
370
    18
390
0
  6
Continuous
 62
     1
100
AcDbPolyline
 90
        2
 70
     0
 10
533.804688
 20
-1248.589844
 10
533.804688
 20
-1228.589844
  0
LWPOLYLINE
  5
11C
100
AcDbEntity
  8
LAYER22
370
    18
390
0
  6
Continuous
 62
     1
100
AcDbPolyline
 90
        2
 70
     0
 10
538.804688
 20
-1248.589844
 10
538.804688
 20
-1228.589844
  0
LWPOLYLINE
  5
11D
100
AcDbEntity
  8
LAYER22
370
    18
390
0
  6
Continuous
 62
     1
100
AcDbPolyline
 90
        2
 70
     0
 10
543.804688
 20
-1248.589844
 10
543.804688
 20
-1228.589844
  0
LWPOLYLINE
  5
11E
100
AcDbEntity
  8
LAYER22
370
    18
390
0
  6
Continuous
 62
     1
100
AcDbPolyline
 90
        2
 70
     0
 10
548.804688
 20
-1248.589844
 10
548.804688
 20
-1228.589844
  0
LWPOLYLINE
  5
11F
100
AcDbEntity
  8
LAYER22
370
    18
390
0
  6
Continuous
 62
     1
100
AcDbPolyline
 90
        2
 70
     0
 10
553.804688
 20
-1248.589844
 10
553.804688
 20
-1228.589844
  0
LWPOLYLINE
  5
120
100
AcDbEntity
  8
LAYER22
370
    18
390
0
  6
Continuous
 62
     1
100
AcDbPolyline
 90
        2
 70
     0
 10
558.804688
 20
-1248.589844
 10
558.804688
 20
-1228.589844
  0
LWPOLYLINE
  5
121
100
AcDbEntity
  8
LAYER22
370
    18
390
0
  6
Continuous
 62
     1
100
AcDbPolyline
 90
        2
 70
     0
 10
563.804688
 20
-1248.589844
 10
563.804688
 20
-1228.589844
  0
LWPOLYLINE
  5
122
100
AcDbEntity
  8
LAYER22
370
    18
390
0
  6
Continuous
 62
     1
100
AcDbPolyline
 90
        2
 70
     0
 10
568.804688
 20
-1248.589844
 10
568.804688
 20
-1228.589844
  0
LWPOLYLINE
  5
123
100
AcDbEntity
  8
LAYER22
370
    18
390
0
  6
Continuous
 62
     1
100
AcDbPolyline
 90
        2
 70
     0
 10
573.804688
 20
-1248.589844
 10
573.804688
 20
-1228.589844
  0
LWPOLYLINE
  5
124
100
AcDbEntity
  8
LAYER22
370
    18
390
0
  6
Continuous
 62
     1
100
AcDbPolyline
 90
        2
 70
     0
 10
578.804688
 20
-1248.589844
 10
578.804688
 20
-1228.589844
  0
LWPOLYLINE
  5
125
100
AcDbEntity
  8
LAYER22
370
    18
390
0
  6
Continuous
 62
     1
100
AcDbPolyline
 90
        2
 70
     0
 10
583.804688
 20
-1248.589844
 10
583.804688
 20
-1228.589844
  0
LWPOLYLINE
  5
126
100
AcDbEntity
  8
LAYER22
370
    18
390
0
  6
Continuous
 62
     1
100
AcDbPolyline
 90
        2
 70
     0
 10
588.804688
 20
-1248.589844
 10
588.804688
 20
-1228.589844
  0
LWPOLYLINE
  5
127
100
AcDbEntity
  8
LAYER22
370
    18
390
0
  6
Continuous
 62
     1
100
AcDbPolyline
 90
        2
 70
     0
 10
593.804688
 20
-1248.589844
 10
593.804688
 20
-1228.589844
  0
LWPOLYLINE
  5
128
100
AcDbEntity
  8
LAYER22
370
    18
390
0
  6
Continuous
 62
     1
100
AcDbPolyline
 90
        4
 70
     1
 10
-393.195313
 20
1128.410156
 10
-393.195313
 20
1148.410156
 10
593.804688
 20
1148.410156
 10
593.804688
 20
1128.410156
  0
LWPOLYLINE
  5
129
100
AcDbEntity
  8
LAYER22
370
    18
390
0
  6
Continuous
 62
     1
100
AcDbPolyline
 90
        2
 70
     0
 10
-388.195313
 20
1128.410156
 10
-388.195313
 20
1148.410156
  0
LWPOLYLINE
  5
12A
100
AcDbEntity
  8
LAYER22
370
    18
390
0
  6
Continuous
 62
     1
100
AcDbPolyline
 90
        2
 70
     0
 10
-383.195313
 20
1128.410156
 10
-383.195313
 20
1148.410156
  0
LWPOLYLINE
  5
12B
100
AcDbEntity
  8
LAYER22
370
    18
390
0
  6
Continuous
 62
     1
100
AcDbPolyline
 90
        2
 70
     0
 10
-378.195313
 20
1128.410156
 10
-378.195313
 20
1148.410156
  0
LWPOLYLINE
  5
12C
100
AcDbEntity
  8
LAYER22
370
    18
390
0
  6
Continuous
 62
     1
100
AcDbPolyline
 90
        2
 70
     0
 10
-373.195313
 20
1128.410156
 10
-373.195313
 20
1148.410156
  0
LWPOLYLINE
  5
12D
100
AcDbEntity
  8
LAYER22
370
    18
390
0
  6
Continuous
 62
     1
100
AcDbPolyline
 90
        2
 70
     0
 10
-368.195313
 20
1128.410156
 10
-368.195313
 20
1148.410156
  0
LWPOLYLINE
  5
12E
100
AcDbEntity
  8
LAYER22
370
    18
390
0
  6
Continuous
 62
     1
100
AcDbPolyline
 90
        2
 70
     0
 10
-363.195313
 20
1128.410156
 10
-363.195313
 20
1148.410156
  0
LWPOLYLINE
  5
12F
100
AcDbEntity
  8
LAYER22
370
    18
390
0
  6
Continuous
 62
     1
100
AcDbPolyline
 90
        2
 70
     0
 10
-358.195313
 20
1128.410156
 10
-358.195313
 20
1148.410156
  0
LWPOLYLINE
  5
130
100
AcDbEntity
  8
LAYER22
370
    18
390
0
  6
Continuous
 62
     1
100
AcDbPolyline
 90
        2
 70
     0
 10
-353.195313
 20
1128.410156
 10
-353.195313
 20
1148.410156
  0
LWPOLYLINE
  5
131
100
AcDbEntity
  8
LAYER22
370
    18
390
0
  6
Continuous
 62
     1
100
AcDbPolyline
 90
        2
 70
     0
 10
-348.195313
 20
1128.410156
 10
-348.195313
 20
1148.410156
  0
LWPOLYLINE
  5
132
100
AcDbEntity
  8
LAYER22
370
    18
390
0
  6
Continuous
 62
     1
100
AcDbPolyline
 90
        2
 70
     0
 10
-343.195313
 20
1128.410156
 10
-343.195313
 20
1148.410156
  0
LWPOLYLINE
  5
133
100
AcDbEntity
  8
LAYER22
370
    18
390
0
  6
Continuous
 62
     1
100
AcDbPolyline
 90
        2
 70
     0
 10
-338.195313
 20
1128.410156
 10
-338.195313
 20
1148.410156
  0
LWPOLYLINE
  5
134
100
AcDbEntity
  8
LAYER22
370
    18
390
0
  6
Continuous
 62
     1
100
AcDbPolyline
 90
        2
 70
     0
 10
-333.195313
 20
1128.410156
 10
-333.195313
 20
1148.410156
  0
LWPOLYLINE
  5
135
100
AcDbEntity
  8
LAYER22
370
    18
390
0
  6
Continuous
 62
     1
100
AcDbPolyline
 90
        2
 70
     0
 10
-328.195313
 20
1128.410156
 10
-328.195313
 20
1148.410156
  0
LWPOLYLINE
  5
136
100
AcDbEntity
  8
LAYER22
370
    18
390
0
  6
Continuous
 62
     1
100
AcDbPolyline
 90
        2
 70
     0
 10
-323.195313
 20
1128.410156
 10
-323.195313
 20
1148.410156
  0
LWPOLYLINE
  5
137
100
AcDbEntity
  8
LAYER22
370
    18
390
0
  6
Continuous
 62
     1
100
AcDbPolyline
 90
        2
 70
     0
 10
-318.195313
 20
1128.410156
 10
-318.195313
 20
1148.410156
  0
LWPOLYLINE
  5
138
100
AcDbEntity
  8
LAYER22
370
    18
390
0
  6
Continuous
 62
     1
100
AcDbPolyline
 90
        2
 70
     0
 10
-313.195313
 20
1128.410156
 10
-313.195313
 20
1148.410156
  0
LWPOLYLINE
  5
139
100
AcDbEntity
  8
LAYER22
370
    18
390
0
  6
Continuous
 62
     1
100
AcDbPolyline
 90
        2
 70
     0
 10
-308.195313
 20
1128.410156
 10
-308.195313
 20
1148.410156
  0
LWPOLYLINE
  5
13A
100
AcDbEntity
  8
LAYER22
370
    18
390
0
  6
Continuous
 62
     1
100
AcDbPolyline
 90
        2
 70
     0
 10
-303.195313
 20
1128.410156
 10
-303.195313
 20
1148.410156
  0
LWPOLYLINE
  5
13B
100
AcDbEntity
  8
LAYER22
370
    18
390
0
  6
Continuous
 62
     1
100
AcDbPolyline
 90
        2
 70
     0
 10
-298.195313
 20
1128.410156
 10
-298.195313
 20
1148.410156
  0
LWPOLYLINE
  5
13C
100
AcDbEntity
  8
LAYER22
370
    18
390
0
  6
Continuous
 62
     1
100
AcDbPolyline
 90
        2
 70
     0
 10
-293.195313
 20
1128.410156
 10
-293.195313
 20
1148.410156
  0
LWPOLYLINE
  5
13D
100
AcDbEntity
  8
LAYER22
370
    18
390
0
  6
Continuous
 62
     1
100
AcDbPolyline
 90
        2
 70
     0
 10
-288.195313
 20
1128.410156
 10
-288.195313
 20
1148.410156
  0
LWPOLYLINE
  5
13E
100
AcDbEntity
  8
LAYER22
370
    18
390
0
  6
Continuous
 62
     1
100
AcDbPolyline
 90
        2
 70
     0
 10
-283.195313
 20
1128.410156
 10
-283.195313
 20
1148.410156
  0
LWPOLYLINE
  5
13F
100
AcDbEntity
  8
LAYER22
370
    18
390
0
  6
Continuous
 62
     1
100
AcDbPolyline
 90
        2
 70
     0
 10
-278.195313
 20
1128.410156
 10
-278.195313
 20
1148.410156
  0
LWPOLYLINE
  5
140
100
AcDbEntity
  8
LAYER22
370
    18
390
0
  6
Continuous
 62
     1
100
AcDbPolyline
 90
        2
 70
     0
 10
-273.195313
 20
1128.410156
 10
-273.195313
 20
1148.410156
  0
LWPOLYLINE
  5
141
100
AcDbEntity
  8
LAYER22
370
    18
390
0
  6
Continuous
 62
     1
100
AcDbPolyline
 90
        2
 70
     0
 10
-268.195313
 20
1128.410156
 10
-268.195313
 20
1148.410156
  0
LWPOLYLINE
  5
142
100
AcDbEntity
  8
LAYER22
370
    18
390
0
  6
Continuous
 62
     1
100
AcDbPolyline
 90
        2
 70
     0
 10
-263.195313
 20
1128.410156
 10
-263.195313
 20
1148.410156
  0
LWPOLYLINE
  5
143
100
AcDbEntity
  8
LAYER22
370
    18
390
0
  6
Continuous
 62
     1
100
AcDbPolyline
 90
        2
 70
     0
 10
-258.195313
 20
1128.410156
 10
-258.195313
 20
1148.410156
  0
LWPOLYLINE
  5
144
100
AcDbEntity
  8
LAYER22
370
    18
390
0
  6
Continuous
 62
     1
100
AcDbPolyline
 90
        2
 70
     0
 10
-253.195313
 20
1128.410156
 10
-253.195313
 20
1148.410156
  0
LWPOLYLINE
  5
145
100
AcDbEntity
  8
LAYER22
370
    18
390
0
  6
Continuous
 62
     1
100
AcDbPolyline
 90
        2
 70
     0
 10
-248.195313
 20
1128.410156
 10
-248.195313
 20
1148.410156
  0
LWPOLYLINE
  5
146
100
AcDbEntity
  8
LAYER22
370
    18
390
0
  6
Continuous
 62
     1
100
AcDbPolyline
 90
        2
 70
     0
 10
-243.195313
 20
1128.410156
 10
-243.195313
 20
1148.410156
  0
LWPOLYLINE
  5
147
100
AcDbEntity
  8
LAYER22
370
    18
390
0
  6
Continuous
 62
     1
100
AcDbPolyline
 90
        2
 70
     0
 10
-238.195313
 20
1128.410156
 10
-238.195313
 20
1148.410156
  0
LWPOLYLINE
  5
148
100
AcDbEntity
  8
LAYER22
370
    18
390
0
  6
Continuous
 62
     1
100
AcDbPolyline
 90
        2
 70
     0
 10
-233.195313
 20
1128.410156
 10
-233.195313
 20
1148.410156
  0
LWPOLYLINE
  5
149
100
AcDbEntity
  8
LAYER22
370
    18
390
0
  6
Continuous
 62
     1
100
AcDbPolyline
 90
        2
 70
     0
 10
-228.195313
 20
1128.410156
 10
-228.195313
 20
1148.410156
  0
LWPOLYLINE
  5
14A
100
AcDbEntity
  8
LAYER22
370
    18
390
0
  6
Continuous
 62
     1
100
AcDbPolyline
 90
        2
 70
     0
 10
-223.195313
 20
1128.410156
 10
-223.195313
 20
1148.410156
  0
LWPOLYLINE
  5
14B
100
AcDbEntity
  8
LAYER22
370
    18
390
0
  6
Continuous
 62
     1
100
AcDbPolyline
 90
        2
 70
     0
 10
-218.195313
 20
1128.410156
 10
-218.195313
 20
1148.410156
  0
LWPOLYLINE
  5
14C
100
AcDbEntity
  8
LAYER22
370
    18
390
0
  6
Continuous
 62
     1
100
AcDbPolyline
 90
        2
 70
     0
 10
-213.195313
 20
1128.410156
 10
-213.195313
 20
1148.410156
  0
LWPOLYLINE
  5
14D
100
AcDbEntity
  8
LAYER22
370
    18
390
0
  6
Continuous
 62
     1
100
AcDbPolyline
 90
        2
 70
     0
 10
-208.195313
 20
1128.410156
 10
-208.195313
 20
1148.410156
  0
LWPOLYLINE
  5
14E
100
AcDbEntity
  8
LAYER22
370
    18
390
0
  6
Continuous
 62
     1
100
AcDbPolyline
 90
        2
 70
     0
 10
-203.195313
 20
1128.410156
 10
-203.195313
 20
1148.410156
  0
LWPOLYLINE
  5
14F
100
AcDbEntity
  8
LAYER22
370
    18
390
0
  6
Continuous
 62
     1
100
AcDbPolyline
 90
        2
 70
     0
 10
-198.195313
 20
1128.410156
 10
-198.195313
 20
1148.410156
  0
LWPOLYLINE
  5
150
100
AcDbEntity
  8
LAYER22
370
    18
390
0
  6
Continuous
 62
     1
100
AcDbPolyline
 90
        2
 70
     0
 10
-193.195313
 20
1128.410156
 10
-193.195313
 20
1148.410156
  0
LWPOLYLINE
  5
151
100
AcDbEntity
  8
LAYER22
370
    18
390
0
  6
Continuous
 62
     1
100
AcDbPolyline
 90
        2
 70
     0
 10
-188.195313
 20
1128.410156
 10
-188.195313
 20
1148.410156
  0
LWPOLYLINE
  5
152
100
AcDbEntity
  8
LAYER22
370
    18
390
0
  6
Continuous
 62
     1
100
AcDbPolyline
 90
        2
 70
     0
 10
-183.195313
 20
1128.410156
 10
-183.195313
 20
1148.410156
  0
LWPOLYLINE
  5
153
100
AcDbEntity
  8
LAYER22
370
    18
390
0
  6
Continuous
 62
     1
100
AcDbPolyline
 90
        2
 70
     0
 10
-178.195313
 20
1128.410156
 10
-178.195313
 20
1148.410156
  0
LWPOLYLINE
  5
154
100
AcDbEntity
  8
LAYER22
370
    18
390
0
  6
Continuous
 62
     1
100
AcDbPolyline
 90
        2
 70
     0
 10
-173.195313
 20
1128.410156
 10
-173.195313
 20
1148.410156
  0
LWPOLYLINE
  5
155
100
AcDbEntity
  8
LAYER22
370
    18
390
0
  6
Continuous
 62
     1
100
AcDbPolyline
 90
        2
 70
     0
 10
-168.195313
 20
1128.410156
 10
-168.195313
 20
1148.410156
  0
LWPOLYLINE
  5
156
100
AcDbEntity
  8
LAYER22
370
    18
390
0
  6
Continuous
 62
     1
100
AcDbPolyline
 90
        2
 70
     0
 10
-163.195313
 20
1128.410156
 10
-163.195313
 20
1148.410156
  0
LWPOLYLINE
  5
157
100
AcDbEntity
  8
LAYER22
370
    18
390
0
  6
Continuous
 62
     1
100
AcDbPolyline
 90
        2
 70
     0
 10
-158.195313
 20
1128.410156
 10
-158.195313
 20
1148.410156
  0
LWPOLYLINE
  5
158
100
AcDbEntity
  8
LAYER22
370
    18
390
0
  6
Continuous
 62
     1
100
AcDbPolyline
 90
        2
 70
     0
 10
-153.195313
 20
1128.410156
 10
-153.195313
 20
1148.410156
  0
LWPOLYLINE
  5
159
100
AcDbEntity
  8
LAYER22
370
    18
390
0
  6
Continuous
 62
     1
100
AcDbPolyline
 90
        2
 70
     0
 10
-148.195313
 20
1128.410156
 10
-148.195313
 20
1148.410156
  0
LWPOLYLINE
  5
15A
100
AcDbEntity
  8
LAYER22
370
    18
390
0
  6
Continuous
 62
     1
100
AcDbPolyline
 90
        2
 70
     0
 10
-143.195313
 20
1128.410156
 10
-143.195313
 20
1148.410156
  0
LWPOLYLINE
  5
15B
100
AcDbEntity
  8
LAYER22
370
    18
390
0
  6
Continuous
 62
     1
100
AcDbPolyline
 90
        2
 70
     0
 10
-139.195313
 20
1128.410156
 10
-139.195313
 20
1148.410156
  0
LWPOLYLINE
  5
15C
100
AcDbEntity
  8
LAYER22
370
    18
390
0
  6
Continuous
 62
     1
100
AcDbPolyline
 90
        2
 70
     0
 10
-133.195313
 20
1128.410156
 10
-133.195313
 20
1148.410156
  0
LWPOLYLINE
  5
15D
100
AcDbEntity
  8
LAYER22
370
    18
390
0
  6
Continuous
 62
     1
100
AcDbPolyline
 90
        2
 70
     0
 10
-129.195313
 20
1128.410156
 10
-129.195313
 20
1148.410156
  0
LWPOLYLINE
  5
15E
100
AcDbEntity
  8
LAYER22
370
    18
390
0
  6
Continuous
 62
     1
100
AcDbPolyline
 90
        2
 70
     0
 10
-123.195313
 20
1128.410156
 10
-123.195313
 20
1148.410156
  0
LWPOLYLINE
  5
15F
100
AcDbEntity
  8
LAYER22
370
    18
390
0
  6
Continuous
 62
     1
100
AcDbPolyline
 90
        2
 70
     0
 10
-119.195313
 20
1128.410156
 10
-119.195313
 20
1148.410156
  0
LWPOLYLINE
  5
160
100
AcDbEntity
  8
LAYER22
370
    18
390
0
  6
Continuous
 62
     1
100
AcDbPolyline
 90
        2
 70
     0
 10
-113.195313
 20
1128.410156
 10
-113.195313
 20
1148.410156
  0
LWPOLYLINE
  5
161
100
AcDbEntity
  8
LAYER22
370
    18
390
0
  6
Continuous
 62
     1
100
AcDbPolyline
 90
        2
 70
     0
 10
-109.195313
 20
1128.410156
 10
-109.195313
 20
1148.410156
  0
LWPOLYLINE
  5
162
100
AcDbEntity
  8
LAYER22
370
    18
390
0
  6
Continuous
 62
     1
100
AcDbPolyline
 90
        2
 70
     0
 10
-103.195313
 20
1128.410156
 10
-103.195313
 20
1148.410156
  0
LWPOLYLINE
  5
163
100
AcDbEntity
  8
LAYER22
370
    18
390
0
  6
Continuous
 62
     1
100
AcDbPolyline
 90
        2
 70
     0
 10
-99.195313
 20
1128.410156
 10
-99.195313
 20
1148.410156
  0
LWPOLYLINE
  5
164
100
AcDbEntity
  8
LAYER22
370
    18
390
0
  6
Continuous
 62
     1
100
AcDbPolyline
 90
        2
 70
     0
 10
-93.195313
 20
1128.410156
 10
-93.195313
 20
1148.410156
  0
LWPOLYLINE
  5
165
100
AcDbEntity
  8
LAYER22
370
    18
390
0
  6
Continuous
 62
     1
100
AcDbPolyline
 90
        2
 70
     0
 10
-89.195313
 20
1128.410156
 10
-89.195313
 20
1148.410156
  0
LWPOLYLINE
  5
166
100
AcDbEntity
  8
LAYER22
370
    18
390
0
  6
Continuous
 62
     1
100
AcDbPolyline
 90
        2
 70
     0
 10
-83.195313
 20
1128.410156
 10
-83.195313
 20
1148.410156
  0
LWPOLYLINE
  5
167
100
AcDbEntity
  8
LAYER22
370
    18
390
0
  6
Continuous
 62
     1
100
AcDbPolyline
 90
        2
 70
     0
 10
-79.195313
 20
1128.410156
 10
-79.195313
 20
1148.410156
  0
LWPOLYLINE
  5
168
100
AcDbEntity
  8
LAYER22
370
    18
390
0
  6
Continuous
 62
     1
100
AcDbPolyline
 90
        2
 70
     0
 10
-73.195313
 20
1128.410156
 10
-73.195313
 20
1148.410156
  0
LWPOLYLINE
  5
169
100
AcDbEntity
  8
LAYER22
370
    18
390
0
  6
Continuous
 62
     1
100
AcDbPolyline
 90
        2
 70
     0
 10
-69.195313
 20
1128.410156
 10
-69.195313
 20
1148.410156
  0
LWPOLYLINE
  5
16A
100
AcDbEntity
  8
LAYER22
370
    18
390
0
  6
Continuous
 62
     1
100
AcDbPolyline
 90
        2
 70
     0
 10
-63.195313
 20
1128.410156
 10
-63.195313
 20
1148.410156
  0
LWPOLYLINE
  5
16B
100
AcDbEntity
  8
LAYER22
370
    18
390
0
  6
Continuous
 62
     1
100
AcDbPolyline
 90
        2
 70
     0
 10
-59.195313
 20
1128.410156
 10
-59.195313
 20
1148.410156
  0
LWPOLYLINE
  5
16C
100
AcDbEntity
  8
LAYER22
370
    18
390
0
  6
Continuous
 62
     1
100
AcDbPolyline
 90
        2
 70
     0
 10
-53.195313
 20
1128.410156
 10
-53.195313
 20
1148.410156
  0
LWPOLYLINE
  5
16D
100
AcDbEntity
  8
LAYER22
370
    18
390
0
  6
Continuous
 62
     1
100
AcDbPolyline
 90
        2
 70
     0
 10
-49.195313
 20
1128.410156
 10
-49.195313
 20
1148.410156
  0
LWPOLYLINE
  5
16E
100
AcDbEntity
  8
LAYER22
370
    18
390
0
  6
Continuous
 62
     1
100
AcDbPolyline
 90
        2
 70
     0
 10
-43.195313
 20
1128.410156
 10
-43.195313
 20
1148.410156
  0
LWPOLYLINE
  5
16F
100
AcDbEntity
  8
LAYER22
370
    18
390
0
  6
Continuous
 62
     1
100
AcDbPolyline
 90
        2
 70
     0
 10
-39.195313
 20
1128.410156
 10
-39.195313
 20
1148.410156
  0
LWPOLYLINE
  5
170
100
AcDbEntity
  8
LAYER22
370
    18
390
0
  6
Continuous
 62
     1
100
AcDbPolyline
 90
        2
 70
     0
 10
-33.195313
 20
1128.410156
 10
-33.195313
 20
1148.410156
  0
LWPOLYLINE
  5
171
100
AcDbEntity
  8
LAYER22
370
    18
390
0
  6
Continuous
 62
     1
100
AcDbPolyline
 90
        2
 70
     0
 10
-29.195313
 20
1128.410156
 10
-29.195313
 20
1148.410156
  0
LWPOLYLINE
  5
172
100
AcDbEntity
  8
LAYER22
370
    18
390
0
  6
Continuous
 62
     1
100
AcDbPolyline
 90
        2
 70
     0
 10
-23.195313
 20
1128.410156
 10
-23.195313
 20
1148.410156
  0
LWPOLYLINE
  5
173
100
AcDbEntity
  8
LAYER22
370
    18
390
0
  6
Continuous
 62
     1
100
AcDbPolyline
 90
        2
 70
     0
 10
-19.195313
 20
1128.410156
 10
-19.195313
 20
1148.410156
  0
LWPOLYLINE
  5
174
100
AcDbEntity
  8
LAYER22
370
    18
390
0
  6
Continuous
 62
     1
100
AcDbPolyline
 90
        2
 70
     0
 10
-13.195313
 20
1128.410156
 10
-13.195313
 20
1148.410156
  0
LWPOLYLINE
  5
175
100
AcDbEntity
  8
LAYER22
370
    18
390
0
  6
Continuous
 62
     1
100
AcDbPolyline
 90
        2
 70
     0
 10
-9.195313
 20
1128.410156
 10
-9.195313
 20
1148.410156
  0
LWPOLYLINE
  5
176
100
AcDbEntity
  8
LAYER22
370
    18
390
0
  6
Continuous
 62
     1
100
AcDbPolyline
 90
        2
 70
     0
 10
-3.195313
 20
1128.410156
 10
-3.195313
 20
1148.410156
  0
LWPOLYLINE
  5
177
100
AcDbEntity
  8
LAYER22
370
    18
390
0
  6
Continuous
 62
     1
100
AcDbPolyline
 90
        2
 70
     0
 10
0.804688
 20
1128.410156
 10
0.804688
 20
1148.410156
  0
LWPOLYLINE
  5
178
100
AcDbEntity
  8
LAYER22
370
    18
390
0
  6
Continuous
 62
     1
100
AcDbPolyline
 90
        2
 70
     0
 10
6.804688
 20
1128.410156
 10
6.804688
 20
1148.410156
  0
LWPOLYLINE
  5
179
100
AcDbEntity
  8
LAYER22
370
    18
390
0
  6
Continuous
 62
     1
100
AcDbPolyline
 90
        2
 70
     0
 10
10.804688
 20
1128.410156
 10
10.804688
 20
1148.410156
  0
LWPOLYLINE
  5
17A
100
AcDbEntity
  8
LAYER22
370
    18
390
0
  6
Continuous
 62
     1
100
AcDbPolyline
 90
        2
 70
     0
 10
16.804688
 20
1128.410156
 10
16.804688
 20
1148.410156
  0
LWPOLYLINE
  5
17B
100
AcDbEntity
  8
LAYER22
370
    18
390
0
  6
Continuous
 62
     1
100
AcDbPolyline
 90
        2
 70
     0
 10
20.804688
 20
1128.410156
 10
20.804688
 20
1148.410156
  0
LWPOLYLINE
  5
17C
100
AcDbEntity
  8
LAYER22
370
    18
390
0
  6
Continuous
 62
     1
100
AcDbPolyline
 90
        2
 70
     0
 10
26.804688
 20
1128.410156
 10
26.804688
 20
1148.410156
  0
LWPOLYLINE
  5
17D
100
AcDbEntity
  8
LAYER22
370
    18
390
0
  6
Continuous
 62
     1
100
AcDbPolyline
 90
        2
 70
     0
 10
30.804688
 20
1128.410156
 10
30.804688
 20
1148.410156
  0
LWPOLYLINE
  5
17E
100
AcDbEntity
  8
LAYER22
370
    18
390
0
  6
Continuous
 62
     1
100
AcDbPolyline
 90
        2
 70
     0
 10
36.804688
 20
1128.410156
 10
36.804688
 20
1148.410156
  0
LWPOLYLINE
  5
17F
100
AcDbEntity
  8
LAYER22
370
    18
390
0
  6
Continuous
 62
     1
100
AcDbPolyline
 90
        2
 70
     0
 10
40.804688
 20
1128.410156
 10
40.804688
 20
1148.410156
  0
LWPOLYLINE
  5
180
100
AcDbEntity
  8
LAYER22
370
    18
390
0
  6
Continuous
 62
     1
100
AcDbPolyline
 90
        2
 70
     0
 10
46.804688
 20
1128.410156
 10
46.804688
 20
1148.410156
  0
LWPOLYLINE
  5
181
100
AcDbEntity
  8
LAYER22
370
    18
390
0
  6
Continuous
 62
     1
100
AcDbPolyline
 90
        2
 70
     0
 10
50.804688
 20
1128.410156
 10
50.804688
 20
1148.410156
  0
LWPOLYLINE
  5
182
100
AcDbEntity
  8
LAYER22
370
    18
390
0
  6
Continuous
 62
     1
100
AcDbPolyline
 90
        2
 70
     0
 10
56.804688
 20
1128.410156
 10
56.804688
 20
1148.410156
  0
LWPOLYLINE
  5
183
100
AcDbEntity
  8
LAYER22
370
    18
390
0
  6
Continuous
 62
     1
100
AcDbPolyline
 90
        2
 70
     0
 10
60.804688
 20
1128.410156
 10
60.804688
 20
1148.410156
  0
LWPOLYLINE
  5
184
100
AcDbEntity
  8
LAYER22
370
    18
390
0
  6
Continuous
 62
     1
100
AcDbPolyline
 90
        2
 70
     0
 10
66.804688
 20
1128.410156
 10
66.804688
 20
1148.410156
  0
LWPOLYLINE
  5
185
100
AcDbEntity
  8
LAYER22
370
    18
390
0
  6
Continuous
 62
     1
100
AcDbPolyline
 90
        2
 70
     0
 10
70.804688
 20
1128.410156
 10
70.804688
 20
1148.410156
  0
LWPOLYLINE
  5
186
100
AcDbEntity
  8
LAYER22
370
    18
390
0
  6
Continuous
 62
     1
100
AcDbPolyline
 90
        2
 70
     0
 10
76.804688
 20
1128.410156
 10
76.804688
 20
1148.410156
  0
LWPOLYLINE
  5
187
100
AcDbEntity
  8
LAYER22
370
    18
390
0
  6
Continuous
 62
     1
100
AcDbPolyline
 90
        2
 70
     0
 10
80.804688
 20
1128.410156
 10
80.804688
 20
1148.410156
  0
LWPOLYLINE
  5
188
100
AcDbEntity
  8
LAYER22
370
    18
390
0
  6
Continuous
 62
     1
100
AcDbPolyline
 90
        2
 70
     0
 10
86.804688
 20
1128.410156
 10
86.804688
 20
1148.410156
  0
LWPOLYLINE
  5
189
100
AcDbEntity
  8
LAYER22
370
    18
390
0
  6
Continuous
 62
     1
100
AcDbPolyline
 90
        2
 70
     0
 10
90.804688
 20
1128.410156
 10
90.804688
 20
1148.410156
  0
LWPOLYLINE
  5
18A
100
AcDbEntity
  8
LAYER22
370
    18
390
0
  6
Continuous
 62
     1
100
AcDbPolyline
 90
        2
 70
     0
 10
96.804688
 20
1128.410156
 10
96.804688
 20
1148.410156
  0
LWPOLYLINE
  5
18B
100
AcDbEntity
  8
LAYER22
370
    18
390
0
  6
Continuous
 62
     1
100
AcDbPolyline
 90
        2
 70
     0
 10
104.804688
 20
1128.410156
 10
104.804688
 20
1148.410156
  0
LWPOLYLINE
  5
18C
100
AcDbEntity
  8
LAYER22
370
    18
390
0
  6
Continuous
 62
     1
100
AcDbPolyline
 90
        2
 70
     0
 10
108.804688
 20
1128.410156
 10
108.804688
 20
1148.410156
  0
LWPOLYLINE
  5
18D
100
AcDbEntity
  8
LAYER22
370
    18
390
0
  6
Continuous
 62
     1
100
AcDbPolyline
 90
        2
 70
     0
 10
114.804688
 20
1128.410156
 10
114.804688
 20
1148.410156
  0
LWPOLYLINE
  5
18E
100
AcDbEntity
  8
LAYER22
370
    18
390
0
  6
Continuous
 62
     1
100
AcDbPolyline
 90
        2
 70
     0
 10
118.804688
 20
1128.410156
 10
118.804688
 20
1148.410156
  0
LWPOLYLINE
  5
18F
100
AcDbEntity
  8
LAYER22
370
    18
390
0
  6
Continuous
 62
     1
100
AcDbPolyline
 90
        2
 70
     0
 10
124.804688
 20
1128.410156
 10
124.804688
 20
1148.410156
  0
LWPOLYLINE
  5
190
100
AcDbEntity
  8
LAYER22
370
    18
390
0
  6
Continuous
 62
     1
100
AcDbPolyline
 90
        2
 70
     0
 10
128.804688
 20
1128.410156
 10
128.804688
 20
1148.410156
  0
LWPOLYLINE
  5
191
100
AcDbEntity
  8
LAYER22
370
    18
390
0
  6
Continuous
 62
     1
100
AcDbPolyline
 90
        2
 70
     0
 10
134.804688
 20
1128.410156
 10
134.804688
 20
1148.410156
  0
LWPOLYLINE
  5
192
100
AcDbEntity
  8
LAYER22
370
    18
390
0
  6
Continuous
 62
     1
100
AcDbPolyline
 90
        2
 70
     0
 10
138.804688
 20
1128.410156
 10
138.804688
 20
1148.410156
  0
LWPOLYLINE
  5
193
100
AcDbEntity
  8
LAYER22
370
    18
390
0
  6
Continuous
 62
     1
100
AcDbPolyline
 90
        2
 70
     0
 10
144.804688
 20
1128.410156
 10
144.804688
 20
1148.410156
  0
LWPOLYLINE
  5
194
100
AcDbEntity
  8
LAYER22
370
    18
390
0
  6
Continuous
 62
     1
100
AcDbPolyline
 90
        2
 70
     0
 10
148.804688
 20
1128.410156
 10
148.804688
 20
1148.410156
  0
LWPOLYLINE
  5
195
100
AcDbEntity
  8
LAYER22
370
    18
390
0
  6
Continuous
 62
     1
100
AcDbPolyline
 90
        2
 70
     0
 10
154.804688
 20
1128.410156
 10
154.804688
 20
1148.410156
  0
LWPOLYLINE
  5
196
100
AcDbEntity
  8
LAYER22
370
    18
390
0
  6
Continuous
 62
     1
100
AcDbPolyline
 90
        2
 70
     0
 10
158.804688
 20
1128.410156
 10
158.804688
 20
1148.410156
  0
LWPOLYLINE
  5
197
100
AcDbEntity
  8
LAYER22
370
    18
390
0
  6
Continuous
 62
     1
100
AcDbPolyline
 90
        2
 70
     0
 10
164.804688
 20
1128.410156
 10
164.804688
 20
1148.410156
  0
LWPOLYLINE
  5
198
100
AcDbEntity
  8
LAYER22
370
    18
390
0
  6
Continuous
 62
     1
100
AcDbPolyline
 90
        2
 70
     0
 10
168.804688
 20
1128.410156
 10
168.804688
 20
1148.410156
  0
LWPOLYLINE
  5
199
100
AcDbEntity
  8
LAYER22
370
    18
390
0
  6
Continuous
 62
     1
100
AcDbPolyline
 90
        2
 70
     0
 10
174.804688
 20
1128.410156
 10
174.804688
 20
1148.410156
  0
LWPOLYLINE
  5
19A
100
AcDbEntity
  8
LAYER22
370
    18
390
0
  6
Continuous
 62
     1
100
AcDbPolyline
 90
        2
 70
     0
 10
178.804688
 20
1128.410156
 10
178.804688
 20
1148.410156
  0
LWPOLYLINE
  5
19B
100
AcDbEntity
  8
LAYER22
370
    18
390
0
  6
Continuous
 62
     1
100
AcDbPolyline
 90
        2
 70
     0
 10
184.804688
 20
1128.410156
 10
184.804688
 20
1148.410156
  0
LWPOLYLINE
  5
19C
100
AcDbEntity
  8
LAYER22
370
    18
390
0
  6
Continuous
 62
     1
100
AcDbPolyline
 90
        2
 70
     0
 10
188.804688
 20
1128.410156
 10
188.804688
 20
1148.410156
  0
LWPOLYLINE
  5
19D
100
AcDbEntity
  8
LAYER22
370
    18
390
0
  6
Continuous
 62
     1
100
AcDbPolyline
 90
        2
 70
     0
 10
194.804688
 20
1128.410156
 10
194.804688
 20
1148.410156
  0
LWPOLYLINE
  5
19E
100
AcDbEntity
  8
LAYER22
370
    18
390
0
  6
Continuous
 62
     1
100
AcDbPolyline
 90
        2
 70
     0
 10
198.804688
 20
1128.410156
 10
198.804688
 20
1148.410156
  0
LWPOLYLINE
  5
19F
100
AcDbEntity
  8
LAYER22
370
    18
390
0
  6
Continuous
 62
     1
100
AcDbPolyline
 90
        2
 70
     0
 10
204.804688
 20
1128.410156
 10
204.804688
 20
1148.410156
  0
LWPOLYLINE
  5
1A0
100
AcDbEntity
  8
LAYER22
370
    18
390
0
  6
Continuous
 62
     1
100
AcDbPolyline
 90
        2
 70
     0
 10
208.804688
 20
1128.410156
 10
208.804688
 20
1148.410156
  0
LWPOLYLINE
  5
1A1
100
AcDbEntity
  8
LAYER22
370
    18
390
0
  6
Continuous
 62
     1
100
AcDbPolyline
 90
        2
 70
     0
 10
214.804688
 20
1128.410156
 10
214.804688
 20
1148.410156
  0
LWPOLYLINE
  5
1A2
100
AcDbEntity
  8
LAYER22
370
    18
390
0
  6
Continuous
 62
     1
100
AcDbPolyline
 90
        2
 70
     0
 10
218.804688
 20
1128.410156
 10
218.804688
 20
1148.410156
  0
LWPOLYLINE
  5
1A3
100
AcDbEntity
  8
LAYER22
370
    18
390
0
  6
Continuous
 62
     1
100
AcDbPolyline
 90
        2
 70
     0
 10
224.804688
 20
1128.410156
 10
224.804688
 20
1148.410156
  0
LWPOLYLINE
  5
1A4
100
AcDbEntity
  8
LAYER22
370
    18
390
0
  6
Continuous
 62
     1
100
AcDbPolyline
 90
        2
 70
     0
 10
228.804688
 20
1128.410156
 10
228.804688
 20
1148.410156
  0
LWPOLYLINE
  5
1A5
100
AcDbEntity
  8
LAYER22
370
    18
390
0
  6
Continuous
 62
     1
100
AcDbPolyline
 90
        2
 70
     0
 10
234.804688
 20
1128.410156
 10
234.804688
 20
1148.410156
  0
LWPOLYLINE
  5
1A6
100
AcDbEntity
  8
LAYER22
370
    18
390
0
  6
Continuous
 62
     1
100
AcDbPolyline
 90
        2
 70
     0
 10
238.804688
 20
1128.410156
 10
238.804688
 20
1148.410156
  0
LWPOLYLINE
  5
1A7
100
AcDbEntity
  8
LAYER22
370
    18
390
0
  6
Continuous
 62
     1
100
AcDbPolyline
 90
        2
 70
     0
 10
244.804688
 20
1128.410156
 10
244.804688
 20
1148.410156
  0
LWPOLYLINE
  5
1A8
100
AcDbEntity
  8
LAYER22
370
    18
390
0
  6
Continuous
 62
     1
100
AcDbPolyline
 90
        2
 70
     0
 10
248.804688
 20
1128.410156
 10
248.804688
 20
1148.410156
  0
LWPOLYLINE
  5
1A9
100
AcDbEntity
  8
LAYER22
370
    18
390
0
  6
Continuous
 62
     1
100
AcDbPolyline
 90
        2
 70
     0
 10
254.804688
 20
1128.410156
 10
254.804688
 20
1148.410156
  0
LWPOLYLINE
  5
1AA
100
AcDbEntity
  8
LAYER22
370
    18
390
0
  6
Continuous
 62
     1
100
AcDbPolyline
 90
        2
 70
     0
 10
258.804688
 20
1128.410156
 10
258.804688
 20
1148.410156
  0
LWPOLYLINE
  5
1AB
100
AcDbEntity
  8
LAYER22
370
    18
390
0
  6
Continuous
 62
     1
100
AcDbPolyline
 90
        2
 70
     0
 10
264.804688
 20
1128.410156
 10
264.804688
 20
1148.410156
  0
LWPOLYLINE
  5
1AC
100
AcDbEntity
  8
LAYER22
370
    18
390
0
  6
Continuous
 62
     1
100
AcDbPolyline
 90
        2
 70
     0
 10
268.804688
 20
1128.410156
 10
268.804688
 20
1148.410156
  0
LWPOLYLINE
  5
1AD
100
AcDbEntity
  8
LAYER22
370
    18
390
0
  6
Continuous
 62
     1
100
AcDbPolyline
 90
        2
 70
     0
 10
274.804688
 20
1128.410156
 10
274.804688
 20
1148.410156
  0
LWPOLYLINE
  5
1AE
100
AcDbEntity
  8
LAYER22
370
    18
390
0
  6
Continuous
 62
     1
100
AcDbPolyline
 90
        2
 70
     0
 10
278.804688
 20
1128.410156
 10
278.804688
 20
1148.410156
  0
LWPOLYLINE
  5
1AF
100
AcDbEntity
  8
LAYER22
370
    18
390
0
  6
Continuous
 62
     1
100
AcDbPolyline
 90
        2
 70
     0
 10
284.804688
 20
1128.410156
 10
284.804688
 20
1148.410156
  0
LWPOLYLINE
  5
1B0
100
AcDbEntity
  8
LAYER22
370
    18
390
0
  6
Continuous
 62
     1
100
AcDbPolyline
 90
        2
 70
     0
 10
288.804688
 20
1128.410156
 10
288.804688
 20
1148.410156
  0
LWPOLYLINE
  5
1B1
100
AcDbEntity
  8
LAYER22
370
    18
390
0
  6
Continuous
 62
     1
100
AcDbPolyline
 90
        2
 70
     0
 10
294.804688
 20
1128.410156
 10
294.804688
 20
1148.410156
  0
LWPOLYLINE
  5
1B2
100
AcDbEntity
  8
LAYER22
370
    18
390
0
  6
Continuous
 62
     1
100
AcDbPolyline
 90
        2
 70
     0
 10
298.804688
 20
1128.410156
 10
298.804688
 20
1148.410156
  0
LWPOLYLINE
  5
1B3
100
AcDbEntity
  8
LAYER22
370
    18
390
0
  6
Continuous
 62
     1
100
AcDbPolyline
 90
        2
 70
     0
 10
304.804688
 20
1128.410156
 10
304.804688
 20
1148.410156
  0
LWPOLYLINE
  5
1B4
100
AcDbEntity
  8
LAYER22
370
    18
390
0
  6
Continuous
 62
     1
100
AcDbPolyline
 90
        2
 70
     0
 10
308.804688
 20
1128.410156
 10
308.804688
 20
1148.410156
  0
LWPOLYLINE
  5
1B5
100
AcDbEntity
  8
LAYER22
370
    18
390
0
  6
Continuous
 62
     1
100
AcDbPolyline
 90
        2
 70
     0
 10
314.804688
 20
1128.410156
 10
314.804688
 20
1148.410156
  0
LWPOLYLINE
  5
1B6
100
AcDbEntity
  8
LAYER22
370
    18
390
0
  6
Continuous
 62
     1
100
AcDbPolyline
 90
        2
 70
     0
 10
318.804688
 20
1128.410156
 10
318.804688
 20
1148.410156
  0
LWPOLYLINE
  5
1B7
100
AcDbEntity
  8
LAYER22
370
    18
390
0
  6
Continuous
 62
     1
100
AcDbPolyline
 90
        2
 70
     0
 10
324.804688
 20
1128.410156
 10
324.804688
 20
1148.410156
  0
LWPOLYLINE
  5
1B8
100
AcDbEntity
  8
LAYER22
370
    18
390
0
  6
Continuous
 62
     1
100
AcDbPolyline
 90
        2
 70
     0
 10
328.804688
 20
1128.410156
 10
328.804688
 20
1148.410156
  0
LWPOLYLINE
  5
1B9
100
AcDbEntity
  8
LAYER22
370
    18
390
0
  6
Continuous
 62
     1
100
AcDbPolyline
 90
        2
 70
     0
 10
334.804688
 20
1128.410156
 10
334.804688
 20
1148.410156
  0
LWPOLYLINE
  5
1BA
100
AcDbEntity
  8
LAYER22
370
    18
390
0
  6
Continuous
 62
     1
100
AcDbPolyline
 90
        2
 70
     0
 10
338.804688
 20
1128.410156
 10
338.804688
 20
1148.410156
  0
LWPOLYLINE
  5
1BB
100
AcDbEntity
  8
LAYER22
370
    18
390
0
  6
Continuous
 62
     1
100
AcDbPolyline
 90
        2
 70
     0
 10
343.804688
 20
1128.410156
 10
343.804688
 20
1148.410156
  0
LWPOLYLINE
  5
1BC
100
AcDbEntity
  8
LAYER22
370
    18
390
0
  6
Continuous
 62
     1
100
AcDbPolyline
 90
        2
 70
     0
 10
348.804688
 20
1128.410156
 10
348.804688
 20
1148.410156
  0
LWPOLYLINE
  5
1BD
100
AcDbEntity
  8
LAYER22
370
    18
390
0
  6
Continuous
 62
     1
100
AcDbPolyline
 90
        2
 70
     0
 10
353.804688
 20
1128.410156
 10
353.804688
 20
1148.410156
  0
LWPOLYLINE
  5
1BE
100
AcDbEntity
  8
LAYER22
370
    18
390
0
  6
Continuous
 62
     1
100
AcDbPolyline
 90
        2
 70
     0
 10
358.804688
 20
1128.410156
 10
358.804688
 20
1148.410156
  0
LWPOLYLINE
  5
1BF
100
AcDbEntity
  8
LAYER22
370
    18
390
0
  6
Continuous
 62
     1
100
AcDbPolyline
 90
        2
 70
     0
 10
363.804688
 20
1128.410156
 10
363.804688
 20
1148.410156
  0
LWPOLYLINE
  5
1C0
100
AcDbEntity
  8
LAYER22
370
    18
390
0
  6
Continuous
 62
     1
100
AcDbPolyline
 90
        2
 70
     0
 10
368.804688
 20
1128.410156
 10
368.804688
 20
1148.410156
  0
LWPOLYLINE
  5
1C1
100
AcDbEntity
  8
LAYER22
370
    18
390
0
  6
Continuous
 62
     1
100
AcDbPolyline
 90
        2
 70
     0
 10
373.804688
 20
1128.410156
 10
373.804688
 20
1148.410156
  0
LWPOLYLINE
  5
1C2
100
AcDbEntity
  8
LAYER22
370
    18
390
0
  6
Continuous
 62
     1
100
AcDbPolyline
 90
        2
 70
     0
 10
378.804688
 20
1128.410156
 10
378.804688
 20
1148.410156
  0
LWPOLYLINE
  5
1C3
100
AcDbEntity
  8
LAYER22
370
    18
390
0
  6
Continuous
 62
     1
100
AcDbPolyline
 90
        2
 70
     0
 10
383.804688
 20
1128.410156
 10
383.804688
 20
1148.410156
  0
LWPOLYLINE
  5
1C4
100
AcDbEntity
  8
LAYER22
370
    18
390
0
  6
Continuous
 62
     1
100
AcDbPolyline
 90
        2
 70
     0
 10
388.804688
 20
1128.410156
 10
388.804688
 20
1148.410156
  0
LWPOLYLINE
  5
1C5
100
AcDbEntity
  8
LAYER22
370
    18
390
0
  6
Continuous
 62
     1
100
AcDbPolyline
 90
        2
 70
     0
 10
393.804688
 20
1128.410156
 10
393.804688
 20
1148.410156
  0
LWPOLYLINE
  5
1C6
100
AcDbEntity
  8
LAYER22
370
    18
390
0
  6
Continuous
 62
     1
100
AcDbPolyline
 90
        2
 70
     0
 10
398.804688
 20
1128.410156
 10
398.804688
 20
1148.410156
  0
LWPOLYLINE
  5
1C7
100
AcDbEntity
  8
LAYER22
370
    18
390
0
  6
Continuous
 62
     1
100
AcDbPolyline
 90
        2
 70
     0
 10
403.804688
 20
1128.410156
 10
403.804688
 20
1148.410156
  0
LWPOLYLINE
  5
1C8
100
AcDbEntity
  8
LAYER22
370
    18
390
0
  6
Continuous
 62
     1
100
AcDbPolyline
 90
        2
 70
     0
 10
408.804688
 20
1128.410156
 10
408.804688
 20
1148.410156
  0
LWPOLYLINE
  5
1C9
100
AcDbEntity
  8
LAYER22
370
    18
390
0
  6
Continuous
 62
     1
100
AcDbPolyline
 90
        2
 70
     0
 10
413.804688
 20
1128.410156
 10
413.804688
 20
1148.410156
  0
LWPOLYLINE
  5
1CA
100
AcDbEntity
  8
LAYER22
370
    18
390
0
  6
Continuous
 62
     1
100
AcDbPolyline
 90
        2
 70
     0
 10
418.804688
 20
1128.410156
 10
418.804688
 20
1148.410156
  0
LWPOLYLINE
  5
1CB
100
AcDbEntity
  8
LAYER22
370
    18
390
0
  6
Continuous
 62
     1
100
AcDbPolyline
 90
        2
 70
     0
 10
423.804688
 20
1128.410156
 10
423.804688
 20
1148.410156
  0
LWPOLYLINE
  5
1CC
100
AcDbEntity
  8
LAYER22
370
    18
390
0
  6
Continuous
 62
     1
100
AcDbPolyline
 90
        2
 70
     0
 10
428.804688
 20
1128.410156
 10
428.804688
 20
1148.410156
  0
LWPOLYLINE
  5
1CD
100
AcDbEntity
  8
LAYER22
370
    18
390
0
  6
Continuous
 62
     1
100
AcDbPolyline
 90
        2
 70
     0
 10
433.804688
 20
1128.410156
 10
433.804688
 20
1148.410156
  0
LWPOLYLINE
  5
1CE
100
AcDbEntity
  8
LAYER22
370
    18
390
0
  6
Continuous
 62
     1
100
AcDbPolyline
 90
        2
 70
     0
 10
438.804688
 20
1128.410156
 10
438.804688
 20
1148.410156
  0
LWPOLYLINE
  5
1CF
100
AcDbEntity
  8
LAYER22
370
    18
390
0
  6
Continuous
 62
     1
100
AcDbPolyline
 90
        2
 70
     0
 10
443.804688
 20
1128.410156
 10
443.804688
 20
1148.410156
  0
LWPOLYLINE
  5
1D0
100
AcDbEntity
  8
LAYER22
370
    18
390
0
  6
Continuous
 62
     1
100
AcDbPolyline
 90
        2
 70
     0
 10
448.804688
 20
1128.410156
 10
448.804688
 20
1148.410156
  0
LWPOLYLINE
  5
1D1
100
AcDbEntity
  8
LAYER22
370
    18
390
0
  6
Continuous
 62
     1
100
AcDbPolyline
 90
        2
 70
     0
 10
453.804688
 20
1128.410156
 10
453.804688
 20
1148.410156
  0
LWPOLYLINE
  5
1D2
100
AcDbEntity
  8
LAYER22
370
    18
390
0
  6
Continuous
 62
     1
100
AcDbPolyline
 90
        2
 70
     0
 10
458.804688
 20
1128.410156
 10
458.804688
 20
1148.410156
  0
LWPOLYLINE
  5
1D3
100
AcDbEntity
  8
LAYER22
370
    18
390
0
  6
Continuous
 62
     1
100
AcDbPolyline
 90
        2
 70
     0
 10
463.804688
 20
1128.410156
 10
463.804688
 20
1148.410156
  0
LWPOLYLINE
  5
1D4
100
AcDbEntity
  8
LAYER22
370
    18
390
0
  6
Continuous
 62
     1
100
AcDbPolyline
 90
        2
 70
     0
 10
468.804688
 20
1128.410156
 10
468.804688
 20
1148.410156
  0
LWPOLYLINE
  5
1D5
100
AcDbEntity
  8
LAYER22
370
    18
390
0
  6
Continuous
 62
     1
100
AcDbPolyline
 90
        2
 70
     0
 10
473.804688
 20
1128.410156
 10
473.804688
 20
1148.410156
  0
LWPOLYLINE
  5
1D6
100
AcDbEntity
  8
LAYER22
370
    18
390
0
  6
Continuous
 62
     1
100
AcDbPolyline
 90
        2
 70
     0
 10
478.804688
 20
1128.410156
 10
478.804688
 20
1148.410156
  0
LWPOLYLINE
  5
1D7
100
AcDbEntity
  8
LAYER22
370
    18
390
0
  6
Continuous
 62
     1
100
AcDbPolyline
 90
        2
 70
     0
 10
483.804688
 20
1128.410156
 10
483.804688
 20
1148.410156
  0
LWPOLYLINE
  5
1D8
100
AcDbEntity
  8
LAYER22
370
    18
390
0
  6
Continuous
 62
     1
100
AcDbPolyline
 90
        2
 70
     0
 10
488.804688
 20
1128.410156
 10
488.804688
 20
1148.410156
  0
LWPOLYLINE
  5
1D9
100
AcDbEntity
  8
LAYER22
370
    18
390
0
  6
Continuous
 62
     1
100
AcDbPolyline
 90
        2
 70
     0
 10
493.804688
 20
1128.410156
 10
493.804688
 20
1148.410156
  0
LWPOLYLINE
  5
1DA
100
AcDbEntity
  8
LAYER22
370
    18
390
0
  6
Continuous
 62
     1
100
AcDbPolyline
 90
        2
 70
     0
 10
498.804688
 20
1128.410156
 10
498.804688
 20
1148.410156
  0
LWPOLYLINE
  5
1DB
100
AcDbEntity
  8
LAYER22
370
    18
390
0
  6
Continuous
 62
     1
100
AcDbPolyline
 90
        2
 70
     0
 10
503.804688
 20
1128.410156
 10
503.804688
 20
1148.410156
  0
LWPOLYLINE
  5
1DC
100
AcDbEntity
  8
LAYER22
370
    18
390
0
  6
Continuous
 62
     1
100
AcDbPolyline
 90
        2
 70
     0
 10
508.804688
 20
1128.410156
 10
508.804688
 20
1148.410156
  0
LWPOLYLINE
  5
1DD
100
AcDbEntity
  8
LAYER22
370
    18
390
0
  6
Continuous
 62
     1
100
AcDbPolyline
 90
        2
 70
     0
 10
513.804688
 20
1128.410156
 10
513.804688
 20
1148.410156
  0
LWPOLYLINE
  5
1DE
100
AcDbEntity
  8
LAYER22
370
    18
390
0
  6
Continuous
 62
     1
100
AcDbPolyline
 90
        2
 70
     0
 10
518.804688
 20
1128.410156
 10
518.804688
 20
1148.410156
  0
LWPOLYLINE
  5
1DF
100
AcDbEntity
  8
LAYER22
370
    18
390
0
  6
Continuous
 62
     1
100
AcDbPolyline
 90
        2
 70
     0
 10
523.804688
 20
1128.410156
 10
523.804688
 20
1148.410156
  0
LWPOLYLINE
  5
1E0
100
AcDbEntity
  8
LAYER22
370
    18
390
0
  6
Continuous
 62
     1
100
AcDbPolyline
 90
        2
 70
     0
 10
528.804688
 20
1128.410156
 10
528.804688
 20
1148.410156
  0
LWPOLYLINE
  5
1E1
100
AcDbEntity
  8
LAYER22
370
    18
390
0
  6
Continuous
 62
     1
100
AcDbPolyline
 90
        2
 70
     0
 10
533.804688
 20
1128.410156
 10
533.804688
 20
1148.410156
  0
LWPOLYLINE
  5
1E2
100
AcDbEntity
  8
LAYER22
370
    18
390
0
  6
Continuous
 62
     1
100
AcDbPolyline
 90
        2
 70
     0
 10
538.804688
 20
1128.410156
 10
538.804688
 20
1148.410156
  0
LWPOLYLINE
  5
1E3
100
AcDbEntity
  8
LAYER22
370
    18
390
0
  6
Continuous
 62
     1
100
AcDbPolyline
 90
        2
 70
     0
 10
543.804688
 20
1128.410156
 10
543.804688
 20
1148.410156
  0
LWPOLYLINE
  5
1E4
100
AcDbEntity
  8
LAYER22
370
    18
390
0
  6
Continuous
 62
     1
100
AcDbPolyline
 90
        2
 70
     0
 10
548.804688
 20
1128.410156
 10
548.804688
 20
1148.410156
  0
LWPOLYLINE
  5
1E5
100
AcDbEntity
  8
LAYER22
370
    18
390
0
  6
Continuous
 62
     1
100
AcDbPolyline
 90
        2
 70
     0
 10
553.804688
 20
1128.410156
 10
553.804688
 20
1148.410156
  0
LWPOLYLINE
  5
1E6
100
AcDbEntity
  8
LAYER22
370
    18
390
0
  6
Continuous
 62
     1
100
AcDbPolyline
 90
        2
 70
     0
 10
558.804688
 20
1128.410156
 10
558.804688
 20
1148.410156
  0
LWPOLYLINE
  5
1E7
100
AcDbEntity
  8
LAYER22
370
    18
390
0
  6
Continuous
 62
     1
100
AcDbPolyline
 90
        2
 70
     0
 10
563.804688
 20
1128.410156
 10
563.804688
 20
1148.410156
  0
LWPOLYLINE
  5
1E8
100
AcDbEntity
  8
LAYER22
370
    18
390
0
  6
Continuous
 62
     1
100
AcDbPolyline
 90
        2
 70
     0
 10
568.804688
 20
1128.410156
 10
568.804688
 20
1148.410156
  0
LWPOLYLINE
  5
1E9
100
AcDbEntity
  8
LAYER22
370
    18
390
0
  6
Continuous
 62
     1
100
AcDbPolyline
 90
        2
 70
     0
 10
573.804688
 20
1128.410156
 10
573.804688
 20
1148.410156
  0
LWPOLYLINE
  5
1EA
100
AcDbEntity
  8
LAYER22
370
    18
390
0
  6
Continuous
 62
     1
100
AcDbPolyline
 90
        2
 70
     0
 10
578.804688
 20
1128.410156
 10
578.804688
 20
1148.410156
  0
LWPOLYLINE
  5
1EB
100
AcDbEntity
  8
LAYER22
370
    18
390
0
  6
Continuous
 62
     1
100
AcDbPolyline
 90
        2
 70
     0
 10
583.804688
 20
1128.410156
 10
583.804688
 20
1148.410156
  0
LWPOLYLINE
  5
1EC
100
AcDbEntity
  8
LAYER22
370
    18
390
0
  6
Continuous
 62
     1
100
AcDbPolyline
 90
        2
 70
     0
 10
588.804688
 20
1128.410156
 10
588.804688
 20
1148.410156
  0
ENDSEC
  0
SECTION
  2
OBJECTS
  0
DICTIONARY
  5
19
100
AcDbDictionary
280
     0
281
     1
  3
ACAD_GROUP
350
1A
  3
ACAD_MLINESTYLE
350
1B
  3
ACAD_LAYOUT
350
1E
  3
ACAD_PLOTSETTINGS
350
22
  3
ACAD_PLOTSTYLENAME
350
1F
  3
ACAD_WIPEOUT_VARS
350
23
  0
DICTIONARY
  5
1A
102
{ACAD_REACTORS
330
19
102
}
100
AcDbDictionary
280
     0
281
     1
  0
DICTIONARY
  5
1B
102
{ACAD_REACTORS
330
19
102
}
100
AcDbDictionary
280
     0
281
     1
  3
Standard
350
1C
  0
MLINESTYLE
  5
1C
102
{ACAD_REACTORS
330
1B
102
}
100
AcDbMlineStyle
  2
Standard
 70
     0
  3

 62
     0
 51
90.0
 52
90.0
 71
     2
 49
0.5
 62
   256
  6
ByLayer
 49
-0.5
 62
   256
  6
ByLayer
  0
ACDBDICTIONARYWDFLT
  5
1F
102
{ACAD_REACTORS
330
19
102
}
100
AcDbDictionary
281
     1
  3
Normal
350
1D
100
AcDbDictionaryWithDefault
340
1D
  0
ACDBPLACEHOLDER
  5
1D
102
{ACAD_REACTORS
330
1F
102
}
  0
LAYOUT
  5
20
102
{ACAD_REACTORS
330
1E
102
}
100
AcDbPlotSettings
  1

  2

  4

  6

 40
0.0
 41
0.0
 42
0.0
 43
0.0
 44
0.0
 45
0.0
 46
0.0
 47
0.0
 48
0.0
 49
0.0
140
0.0
141
0.0
142
1.0
143
1.0
 70
  1024
 72
     0
 73
     0
 74
     0
  7

 75
     0
147
1.0
148
0.0
149
0.0
100
AcDbLayout
  1
Model
 70
     0
 71
     0
 10
0.0
 20
0.0
 11
0.0
 21
0.0
 12
0.0
 22
0.0
 32
0.0
 14
0.0
 24
0.0
 34
0.0
 15
0.0
 25
0.0
 35
0.0
146
0.0
 13
0.0
 23
0.0
 33
0.0
 16
0.0
 26
0.0
 36
0.0
 17
0.0
 27
0.0
 37
0.0
 76
     0
330
A
331
0
345
0
346
0
  0
LAYOUT
  5
21
102
{ACAD_REACTORS
330
1E
102
}
100
AcDbPlotSettings
  1

  2

  4

  6

 40
0.0
 41
0.0
 42
0.0
 43
0.0
 44
0.0
 45
0.0
 46
0.0
 47
0.0
 48
0.0
 49
0.0
140
0.0
141
0.0
142
1.0
143
1.0
 70
     0
 72
     0
 73
     0
 74
     0
  7

 75
     0
147
1.0
148
0.0
149
0.0
100
AcDbLayout
  1
Layout1
 70
     0
 71
     0
 10
0.0
 20
0.0
 11
0.0
 21
0.0
 12
0.0
 22
0.0
 32
0.0
 14
0.0
 24
0.0
 34
0.0
 15
0.0
 25
0.0
 35
0.0
146
0.0
 13
0.0
 23
0.0
 33
0.0
 16
0.0
 26
0.0
 36
0.0
 17
0.0
 27
0.0
 37
0.0
 76
     0
330
B
331
0
345
0
346
0
  0
DICTIONARY
  5
1E
102
{ACAD_REACTORS
330
19
102
}
100
AcDbDictionary
280
     0
281
     1
  3
Layout1
350
21
  3
Model
350
20
  0
DICTIONARY
  5
22
102
{ACAD_REACTORS
330
19
102
}
100
AcDbDictionary
280
     0
281
     1
  0
WIPEOUTVARIABLES
  5
23
100
AcDbWipeoutVariables
 70
     1
  0
ENDSEC
  0
EOF
