  0
SECTION
  2
HEADER
  9
$ACADVER
  1
AC1015
  9
$ACADMAINTVER
 70
     6
  9
$DWGCODEPAGE
  3
ANSI_1252
  9
$INSBASE
 10
0.0
 20
0.0
 30
0.0
  9
$EXTMIN
 10
1.000000E+20
 20
1.000000E+20
 30
1.000000E+20
  9
$EXTMAX
 10
-1.000000E+20
 20
-1.000000E+20
 30
-1.000000E+20
  9
$LIMMIN
 10
0.0
 20
0.0
  9
$LIMMAX
 10
0.0
 20
0.0
  9
$ORTHOMODE
 70
     0
  9
$REGENMODE
 70
     1
  9
$FILLMODE
 70
     1
  9
$QTEXTMODE
 70
     0
  9
$MIRRTEXT
 70
     1
  9
$LTSCALE
 40
50.0
  9
$ATTMODE
 70
     1
  9
$TEXTSIZE
 40
0.2
  9
$TRACEWID
 40
0.05
  9
$TEXTSTYLE
  7
Standard
  9
$CLAYER
  8
0
  9
$CELTYPE
  6
Continuous
  9
$CECOLOR
 62
   256
  9
$CELTSCALE
 40
1.0
  9
$DISPSILH
 70
     0
  9
$DIMSCALE
 40
1.0
  9
$DIMASZ
 40
0.18
  9
$DIMEXO
 40
0.0625
  9
$DIMDLI
 40
0.38
  9
$DIMRND
 40
0.0
  9
$DIMDLE
 40
0.0
  9
$DIMEXE
 40
0.18
  9
$DIMTP
 40
0.0
  9
$DIMTM
 40
0.0
  9
$DIMTXT
 40
0.18
  9
$DIMCEN
 40
0.09
  9
$DIMTSZ
 40
0.0
  9
$DIMTOL
 70
     0
  9
$DIMLIM
 70
     0
  9
$DIMTIH
 70
     1
  9
$DIMTOH
 70
     1
  9
$DIMSE1
 70
     0
  9
$DIMSE2
 70
     0
  9
$DIMTAD
 70
     0
  9
$DIMZIN
 70
     0
  9
$DIMBLK
  1

  9
$DIMASO
 70
     1
  9
$DIMSHO
 70
     1
  9
$DIMPOST
  1

  9
$DIMAPOST
  1

  9
$DIMALT
 70
     0
  9
$DIMALTD
 70
     2
  9
$DIMALTF
 40
25.4
  9
$DIMLFAC
 40
1.0
  9
$DIMTOFL
 70
     0
  9
$DIMTVP
 40
0.0
  9
$DIMTIX
 70
     0
  9
$DIMSOXD
 70
     0
  9
$DIMSAH
 70
     0
  9
$DIMBLK1
  1

  9
$DIMBLK2
  1

  9
$DIMSTYLE
  2
Standard
  9
$DIMCLRD
 70
     0
  9
$DIMCLRE
 70
     0
  9
$DIMCLRT
 70
     0
  9
$DIMTFAC
 40
1.0
  9
$DIMGAP
 40
0.09
  9
$DIMJUST
 70
     0
  9
$DIMSD1
 70
     0
  9
$DIMSD2
 70
     0
  9
$DIMTOLJ
 70
     1
  9
$DIMTZIN
 70
     0
  9
$DIMALTZ
 70
     0
  9
$DIMALTTZ
 70
     0
  9
$DIMUPT
 70
     0
  9
$DIMDEC
 70
     4
  9
$DIMTDEC
 70
     4
  9
$DIMALTU
 70
     2
  9
$DIMALTTD
 70
     2
  9
$DIMTXSTY
  7
Standard
  9
$DIMAUNIT
 70
     0
  9
$DIMADEC
 70
     0
  9
$DIMALTRND
 40
0.0
  9
$DIMAZIN
 70
     0
  9
$DIMDSEP
 70
     0
  9
$DIMATFIT
 70
     3
  9
$DIMFRAC
 70
     0
  9
$DIMLDRBLK
  1

  9
$DIMLUNIT
 70
     2
  9
$DIMLWD
 70
     0
  9
$DIMLWE
 70
     0
  9
$DIMTMOVE
 70
     0
  9
$LUNITS
 70
     2
  9
$LUPREC
 70
     4
  9
$SKETCHINC
 40
0.1
  9
$FILLETRAD
 40
0.0
  9
$AUNITS
 70
     0
  9
$AUPREC
 70
     0
  9
$MENU
  1
acad
  9
$ELEVATION
 40
0.0
  9
$PELEVATION
 40
0.0
  9
$THICKNESS
 40
0.0
  9
$LIMCHECK
 70
     0
  9
$CHAMFERA
 40
0.0
  9
$CHAMFERB
 40
0.0
  9
$CHAMFERC
 40
0.0
  9
$CHAMFERD
 40
0.0
  9
$SKPOLY
 70
     0
  9
$TDCREATE
 40
0.000000000
  9
$TDUCREATE
 40
0.000000000
  9
$TDUPDATE
 40
0.000000000
  9
$TDUUPDATE
 40
0.000000000
  9
$TDINDWG
 40
0.0000000000
  9
$TDUSRTIMER
 40
0.0000000000
  9
$USRTIMER
 70
     1
  9
$ANGBASE
 50
0.0
  9
$ANGDIR
 70
     0
  9
$PDMODE
 70
     0
  9
$PDSIZE
 40
0.0
  9
$PLINEWID
 40
0.0
  9
$SPLFRAME
 70
     0
  9
$SPLINETYPE
 70
     6
  9
$SPLINESEGS
 70
   120
  9
$HANDSEED
  5
B4
  9
$SURFTAB1
 70
     6
  9
$SURFTAB2
 70
     6
  9
$SURFTYPE
 70
     6
  9
$SURFU
 70
     6
  9
$SURFV
 70
     6
  9
$UCSBASE
  2

  9
$UCSNAME
  2

  9
$UCSORG
 10
0.0
 20
0.0
 30
0.0
  9
$UCSXDIR
 10
1.0
 20
0.0
 30
0.0
  9
$UCSYDIR
 10
0.0
 20
1.0
 30
0.0
  9
$UCSORTHOREF
  2

  9
$UCSORTHOVIEW
 70
     0
  9
$UCSORGTOP
 10
0.0
 20
0.0
 30
0.0
  9
$UCSORGBOTTOM
 10
0.0
 20
0.0
 30
0.0
  9
$UCSORGLEFT
 10
0.0
 20
0.0
 30
0.0
  9
$UCSORGRIGHT
 10
0.0
 20
0.0
 30
0.0
  9
$UCSORGFRONT
 10
0.0
 20
0.0
 30
0.0
  9
$UCSORGBACK
 10
0.0
 20
0.0
 30
0.0
  9
$PUCSBASE
  2

  9
$PUCSNAME
  2

  9
$PUCSORG
 10
0.0
 20
0.0
 30
0.0
  9
$PUCSXDIR
 10
1.0
 20
0.0
 30
0.0
  9
$PUCSYDIR
 10
0.0
 20
1.0
 30
0.0
  9
$PUCSORTHOREF
  2

  9
$PUCSORTHOVIEW
 70
     0
  9
$PUCSORGTOP
 10
0.0
 20
0.0
 30
0.0
  9
$PUCSORGBOTTOM
 10
0.0
 20
0.0
 30
0.0
  9
$PUCSORGLEFT
 10
0.0
 20
0.0
 30
0.0
  9
$PUCSORGRIGHT
 10
0.0
 20
0.0
 30
0.0
  9
$PUCSORGFRONT
 10
0.0
 20
0.0
 30
0.0
  9
$PUCSORGBACK
 10
0.0
 20
0.0
 30
0.0
  9
$USERI1
 70
 12345
  9
$USERI2
 70
     0
  9
$USERI3
 70
     0
  9
$USERI4
 70
     0
  9
$USERI5
 70
     0
  9
$USERR1
 40
0.0
  9
$USERR2
 40
0.0
  9
$USERR3
 40
0.0
  9
$USERR4
 40
0.0
  9
$USERR5
 40
0.0
  9
$WORLDVIEW
 70
     1
  9
$SHADEDGE
 70
     3
  9
$SHADEDIF
 70
    70
  9
$TILEMODE
 70
     1
  9
$MAXACTVP
 70
    16
  9
$PINSBASE
 10
0.0
 20
0.0
 30
0.0
  9
$PLIMCHECK
 70
     0
  9
$PEXTMIN
 10
1.000000E+20
 20
1.000000E+20
 30
1.000000E+20
  9
$PEXTMAX
 10
-1.000000E+20
 20
-1.000000E+20
 30
-1.000000E+20
  9
$PLIMMIN
 10
0.0
 20
0.0
  9
$PLIMMAX
 10
12.0
 20
9.0
  9
$UNITMODE
 70
     0
  9
$VISRETAIN
 70
     0
  9
$PLINEGEN
 70
     1
  9
$PSLTSCALE
 70
     0
  9
$TREEDEPTH
 70
  3020
  9
$CMLSTYLE
  2
Standard
  9
$CMLJUST
 70
     0
  9
$CMLSCALE
 40
1.0
  9
$PROXYGRAPHICS
 70
     0
  9
$MEASUREMENT
 70
     0
  9
$CELWEIGHT
370
     0
  9
$ENDCAPS
280
     0
  9
$JOINSTYLE
280
     0
  9
$LWDISPLAY
290
     0
  9
$INSUNITS
 70
     0
  9
$HYPERLINKBASE
  1

  9
$STYLESHEET
  1

  9
$XEDIT
290
     1
  9
$CEPSNTYPE
380
     0
  9
$PSTYLEMODE
290
     1
  9
$FINGERPRINTGUID
  2

  9
$VERSIONGUID
  2

  9
$EXTNAMES
290
     1
  9
$PSVPSCALE
 40
0.0
  0
ENDSEC
  0
SECTION
  2
CLASSES
  0
CLASS
  1
LWPOLYLINE
  2
AcDbPolyline
  3
AutoCAD 2000
 90
        0
280
     0
281
     1
  0
CLASS
  1
IMAGE
  2
AcDbRasterImage
  3
ISM
 90
      127
280
     0
281
     1
  0
CLASS
  1
OLE2FRAME
  2
AcDbOle2Frame
  3
AutoCAD 2000
 90
        0
280
     0
281
     1
  0
CLASS
  1
HATCH
  2
AcDbHatch
  3
AutoCAD 2000
 90
        0
280
     0
281
     1
  0
CLASS
  1
DICTIONARYVAR
  2
AcDbDictionaryVar
  3
AutoCAD 2000
 90
        0
280
     0
281
     0
  0
CLASS
  1
RASTERVARIABLES
  2
AcDbRasterVariables
  3
ISM
 90
        0
280
     0
281
     0
  0
CLASS
  1
IMAGEDEF
  2
AcDbRasterImageDef
  3
ISM
 90
        0
280
     0
281
     0
  0
CLASS
  1
IMAGEDEF_REACTOR
  2
AcDbRasterImageDefReactor
  3
ISM
 90
        1
280
     0
281
     0
  0
CLASS
  1
IDBUFFER
  2
AcDbIdBuffer
  3
AutoCAD 2000
 90
        0
280
     0
281
     0
  0
CLASS
  1
SPATIAL_FILTER
  2
AcDbSpatialFilter
  3
AutoCAD 2000
 90
        0
280
     0
281
     0
  0
CLASS
  1
XRECORD
  2
AcDbXrecord
  3
AutoCAD 2000
 90
        0
280
     0
281
     0
  0
CLASS
  1
SORTENTSTABLE
  2
AcDbSortentsTable
  3
AutoCAD 2000
 90
        0
280
     0
281
     0
  0
CLASS
  1
LAYER_INDEX
  2
AcDbLayerIndex
  3
AutoCAD 2000
 90
        0
280
     0
281
     0
  0
CLASS
  1
SPATIAL_INDEX
  2
AcDbSpatialIndex
  3
AutoCAD 2000
 90
        0
280
     0
281
     0
  0
CLASS
  1
OBJECT_PTR
  2
CAseDLPNTableRecord
  3
"ASE-LPNTableRecord"
 90
        1
280
     0
281
     0
  0
CLASS
  1
LAYOUT
  2
AcDbLayout
  3
AutoCAD 2000
 90
        0
280
     0
281
     0
  0
CLASS
  1
PLOTSETTINGS
  2
AcDbPlotSettings
  3
AutoCAD 2000
 90
        0
280
     0
281
     0
  0
CLASS
  1
ACDBDICTIONARYWDFLT
  2
AcDbDictionaryWithDefault
  3
AutoCAD 2000
 90
        0
280
     0
281
     0
  0
CLASS
  1
ACDBPLACEHOLDER
  2
AcDbPlaceHolder
  3
AutoCAD 2000
 90
        0
280
     0
281
     0
  0
CLASS
  1
VBA_PROJECT
  2
AcDbVbaProject
  3
acadvba
 90
        0
280
     0
281
     0
  0
CLASS
  1
WIPEOUT
  2
AcDbWipeout
  3
WipeOut|AutoCAD Express Tool|expresstools@autodesk.com
 90
      127
280
     0
281
     1
  0
CLASS
  1
WIPEOUTVARIABLES
  2
AcDbWipeoutVariables
  3
WipeOut|AutoCAD Express Tool|expresstools@autodesk.com
 90
        0
280
     0
281
     0
  0
CLASS
  1
RTEXT
  2
RText
  3
RText|AutoCAD Express Tool|expresstools@autodesk.com
 90
        0
280
     0
281
     1
  0
CLASS
  1
ARCALIGNEDTEXT
  2
AcDbArcAlignedText
  3
ATEXT|AutoCAD Express Tool|expresstools@autodesk.com
 90
        0
280
     0
281
     1
  0
ENDSEC
  0
SECTION
  2
TABLES
  0
TABLE
  2
VPORT
  5
7
100
AcDbSymbolTable
 70
     1
  0
VPORT
  5
15
100
AcDbSymbolTableRecord
100
AcDbViewportTableRecord
  2
*ACTIVE
 70
     0
 10
0.0
 20
0.0
 11
1.0
 21
1.0
 12
-106.0
 22
-224.0
 13
0.0
 23
0.0
 14
1.0
 24
1.0
 15
0.0
 25
0.0
 16
0.0
 26
0.0
 36
1.0
 17
0.0
 27
0.0
 37
0.0
 40
2900.0
 41
0.688564
 42
50.0
 43
0.0
 44
0.0
 50
0.0
 51
0.0
 71
     0
 72
   100
 73
     1
 74
     1
 75
     0
 76
     0
 77
     0
 78
     0
281
     0
 65
     0
110
0.0
120
0.0
130
0.0
111
1.0
121
0.0
131
0.0
112
0.0
122
1.0
132
0.0
345
0
346
0
 79
     0
146
0.0
  0
ENDTAB
  0
TABLE
  2
LTYPE
  5
4
100
AcDbSymbolTable
 70
     7
  0
LTYPE
  5
11
100
AcDbSymbolTableRecord
100
AcDbLinetypeTableRecord
  2
ByBlock
 70
    64
  3

 72
    65
 73
     0
 40
0.0
  0
LTYPE
  5
12
100
AcDbSymbolTableRecord
100
AcDbLinetypeTableRecord
  2
ByLayer
 70
    64
  3

 72
    65
 73
     0
 40
0.0
  0
LTYPE
  5
13
100
AcDbSymbolTableRecord
100
AcDbLinetypeTableRecord
  2
Continuous
 70
    64
  3
Solid line
 72
    65
 73
     0
 40
0.0
  0
LTYPE
  5
24
100
AcDbSymbolTableRecord
100
AcDbLinetypeTableRecord
  2
DASHED
 70
    64
  3
Dashed __ __ __
 72
    65
 73
     2
 40
0.75
 49
0.5
 74
     0
 49
-0.25
 74
     0
  0
LTYPE
  5
25
100
AcDbSymbolTableRecord
100
AcDbLinetypeTableRecord
  2
DOT
 70
    64
  3
Dot . . . .
 72
    65
 73
     2
 40
0.25
 49
0.0
 74
     0
 49
-0.25
 74
     0
  0
LTYPE
  5
26
100
AcDbSymbolTableRecord
100
AcDbLinetypeTableRecord
  2
DASHDOT
 70
    64
  3
Dash dot __ . __ .
 72
    65
 73
     4
 40
1.0
 49
0.5
 74
     0
 49
-0.25
 74
     0
 49
0.0
 74
     0
 49
-0.25
 74
     0
  0
LTYPE
  5
27
100
AcDbSymbolTableRecord
100
AcDbLinetypeTableRecord
  2
DIVIDE
 70
    64
  3
Divide __ . . __ . .
 72
    65
 73
     6
 40
1.25
 49
0.5
 74
     0
 49
-0.25
 74
     0
 49
0.0
 74
     0
 49
-0.25
 74
     0
 49
0.0
 74
     0
 49
-0.25
 74
     0
  0
ENDTAB
  0
TABLE
  2
LAYER
  5
2
100
AcDbSymbolTable
 70
     3
  0
LAYER
  5
14
100
AcDbSymbolTableRecord
100
AcDbLayerTableRecord
  2
0
 70
     0
 62
     7
  6
Continuous
290
     1
370
    -3
390
1D
  0
LAYER
  5
29
100
AcDbSymbolTableRecord
100
AcDbLayerTableRecord
  2
LAYER01
 70
     0
 62
     7
  6
Continuous
290
     1
370
    -3
390
1D
  0
LAYER
  5
37
100
AcDbSymbolTableRecord
100
AcDbLayerTableRecord
  2
LAYER22
 70
     0
 62
     7
  6
Continuous
290
     1
370
    -3
390
1D
  0
ENDTAB
  0
TABLE
  2
STYLE
  5
3
100
AcDbSymbolTable
 70
     1
  0
STYLE
  5
17
100
AcDbSymbolTableRecord
100
AcDbTextStyleTableRecord
  2
Standard
 70
     0
 40
0.0
 41
1.0
 50
0.0
 71
     0
 42
0.0
  3
txt
  4

  0
ENDTAB
  0
TABLE
  2
VIEW
  5
5
100
AcDbSymbolTable
 70
     0
  0
ENDTAB
  0
TABLE
  2
UCS
  5
6
100
AcDbSymbolTable
 70
     0
  0
ENDTAB
  0
TABLE
  2
APPID
  5
8
100
AcDbSymbolTable
 70
     1
  0
APPID
  5
16
100
AcDbSymbolTableRecord
100
AcDbRegAppTableRecord
  2
ACAD
 70
     0
  0
ENDTAB
  0
TABLE
  2
DIMSTYLE
  5
9
100
AcDbSymbolTable
 70
     1
100
AcDbDimStyleTable
 71
     0
  0
DIMSTYLE
105
18
100
AcDbSymbolTableRecord
100
AcDbDimStyleTableRecord
  2
Standard
 70
     0
  3

  4

 40
1.0
 41
0.18
 42
0.0625
 43
0.38
 44
0.18
 45
0.0
 46
0.0
 47
0.0
 48
0.0
 71
     0
 72
     0
 73
     1
 74
     1
 75
     0
 76
     0
 77
     0
 78
     0
 79
     0
140
0.18
141
0.09
142
0.0
143
25.4
144
1.0
145
0.0
146
1.0
147
0.09
148
0.0
170
     0
171
     2
172
     0
173
     0
174
     0
175
     0
176
     0
177
     0
178
     0
179
     0
271
     4
272
     4
273
     2
274
     2
275
     0
276
     0
277
     2
278
    46
279
     0
280
     0
281
     0
282
     0
283
     1
284
     0
285
     0
286
     0
288
     0
289
     3
340
17
341
0
342
0
343
0
344
0
371
    -2
372
    -2
  0
ENDTAB
  0
TABLE
  2
BLOCK_RECORD
  5
1
100
AcDbSymbolTable
 70
     0
  0
BLOCK_RECORD
  5
A
100
AcDbSymbolTableRecord
100
AcDbBlockTableRecord
  2
*MODEL_SPACE
340
20
  0
BLOCK_RECORD
  5
B
100
AcDbSymbolTableRecord
100
AcDbBlockTableRecord
  2
*PAPER_SPACE
340
21
  0
ENDTAB
  0
ENDSEC
  0
SECTION
  2
BLOCKS
  0
BLOCK
  5
D
100
AcDbEntity
  8
0
390
0
100
AcDbBlockBegin
  2
*MODEL_SPACE
 70
     0
 10
0.0
 20
0.0
 30
0.0
  3
*MODEL_SPACE
  1

  0
ENDBLK
  5
E
100
AcDbEntity
  8
0
390
0
100
AcDbBlockEnd
  0
BLOCK
  5
F
100
AcDbEntity
 67
     1
  8
0
390
0
100
AcDbBlockBegin
  2
*PAPER_SPACE
 70
     0
 10
0.0
 20
0.0
 30
0.0
  3
*PAPER_SPACE
  1

  0
ENDBLK
  5
10
100
AcDbEntity
 67
     1
  8
0
390
0
100
AcDbBlockEnd
  0
ENDSEC
  0
SECTION
  2
ENTITIES
  0
MTEXT
  5
28
100
AcDbEntity
  8
LAYER01
390
0
 62
     2
100
AcDbMText
 10
-1120.0
 20
1160.0
 30
0.0
 40
11.25
 41
0.0
 71
     7
 72
     1
  1
duplo 66 en 66S
 11
1.0
 21
0.0
 31
0.0
 73
     1
 44
1.333333
  0
LWPOLYLINE
  5
2A
100
AcDbEntity
  8
LAYER01
370
    13
390
0
  6
Continuous
 62
     5
100
AcDbPolyline
 90
        2
 70
     0
 10
-1007.0
 20
761.0
 10
-663.0
 20
761.0
  0
LWPOLYLINE
  5
2B
100
AcDbEntity
  8
LAYER01
370
    18
390
0
  6
Continuous
 62
     1
100
AcDbPolyline
 90
        2
 70
     0
 10
-1007.000061
 20
763.5
 10
-1007.000061
 20
753.5
  0
LWPOLYLINE
  5
2C
100
AcDbEntity
  8
LAYER01
370
    18
390
0
  6
Continuous
 62
     1
100
AcDbPolyline
 90
        2
 70
     0
 10
-663.000061
 20
763.5
 10
-663.000061
 20
753.5
  0
MTEXT
  5
2D
100
AcDbEntity
  8
LAYER01
390
0
 62
     2
100
AcDbMText
 10
-835.0
 20
765.166687
 30
0.0
 40
11.25
 41
0.0
 71
     8
 72
     1
  1
344
 11
1.0
 21
0.0
 31
0.0
 73
     1
 44
1.333333
  0
LWPOLYLINE
  5
2E
100
AcDbEntity
  8
LAYER01
370
    13
390
0
  6
Continuous
 62
     5
100
AcDbPolyline
 90
        2
 70
     0
 10
-992.0
 20
851.0
 10
-850.0
 20
851.0
  0
LWPOLYLINE
  5
2F
100
AcDbEntity
  8
LAYER01
370
    18
390
0
  6
Continuous
 62
     1
100
AcDbPolyline
 90
        2
 70
     0
 10
-992.000061
 20
853.5
 10
-992.000061
 20
843.5
  0
LWPOLYLINE
  5
30
100
AcDbEntity
  8
LAYER01
370
    18
390
0
  6
Continuous
 62
     1
100
AcDbPolyline
 90
        2
 70
     0
 10
-850.000061
 20
853.5
 10
-850.000061
 20
843.5
  0
MTEXT
  5
31
100
AcDbEntity
  8
LAYER01
390
0
 62
     2
100
AcDbMText
 10
-921.0
 20
855.166687
 30
0.0
 40
11.25
 41
0.0
 71
     8
 72
     1
  1
142
 11
1.0
 21
0.0
 31
0.0
 73
     1
 44
1.333333
  0
LWPOLYLINE
  5
32
100
AcDbEntity
  8
LAYER01
370
    13
390
0
  6
Continuous
 62
     5
100
AcDbPolyline
 90
        2
 70
     0
 10
-820.0
 20
851.0
 10
-678.0
 20
851.0
  0
LWPOLYLINE
  5
33
100
AcDbEntity
  8
LAYER01
370
    18
390
0
  6
Continuous
 62
     1
100
AcDbPolyline
 90
        2
 70
     0
 10
-820.000061
 20
853.5
 10
-820.000061
 20
843.5
  0
LWPOLYLINE
  5
34
100
AcDbEntity
  8
LAYER01
370
    18
390
0
  6
Continuous
 62
     1
100
AcDbPolyline
 90
        2
 70
     0
 10
-678.000061
 20
853.5
 10
-678.000061
 20
843.5
  0
MTEXT
  5
35
100
AcDbEntity
  8
LAYER01
390
0
 62
     2
100
AcDbMText
 10
-749.0
 20
855.166687
 30
0.0
 40
11.25
 41
0.0
 71
     8
 72
     1
  1
142
 11
1.0
 21
0.0
 31
0.0
 73
     1
 44
1.333333
  0
LWPOLYLINE
  5
36
100
AcDbEntity
  8
LAYER22
370
    18
390
0
  6
Continuous
 62
     1
100
AcDbPolyline
 90
        4
 70
     1
 10
-992.0
 20
-1595.0
 10
-992.0
 20
1033.0
 10
-850.0
 20
1033.0
 10
-850.0
 20
-1595.0
  0
LWPOLYLINE
  5
38
100
AcDbEntity
  8
LAYER22
370
    18
390
0
  6
Continuous
 62
     1
100
AcDbPolyline
 90
        4
 70
     1
 10
-850.0
 20
-1595.0
 10
-850.0
 20
1033.0
 10
-820.0
 20
1033.0
 10
-820.0
 20
-1595.0
  0
LWPOLYLINE
  5
39
100
AcDbEntity
  8
LAYER22
370
    25
390
0
  6
Continuous
 62
     2
100
AcDbPolyline
 90
       23
 70
     0
 10
-835.0
 20
1085.0
 10
-825.662598
 20
1084.999512
 10
-825.662598
 20
1083.384766
 10
-816.072754
 20
1083.384766
 42
-0.414214
 10
-814.45752
 20
1081.769531
 10
-814.45752
 20
1059.056641
 10
-813.723633
 20
1054.895508
 42
-0.466313
 10
-815.314453
 20
1052.999878
 10
-826.016113
 20
1053.0
 42
-0.469821
 10
-827.603455
 20
1054.914185
 10
-826.823242
 20
1059.056641
 10
-825.813965
 20
1059.056641
 10
-825.813965
 20
1055.725586
 10
-825.107422
 20
1055.019043
 10
-819.555176
 20
1055.019043
 10
-818.848633
 20
1055.725586
 10
-818.848633
 20
1059.056641
 10
-816.476563
 20
1059.056641
 10
-816.476563
 20
1078.337402
 42
0.414214
 10
-819.504883
 20
1081.365723
 10
-828.589844
 20
1081.365723
 10
-828.589844
 20
1082.879883
 10
-835.0
 20
1082.879883
  0
LWPOLYLINE
  5
3A
100
AcDbEntity
  8
LAYER22
370
    25
390
0
  6
Continuous
 62
     2
100
AcDbPolyline
 90
       23
 70
     0
 10
-835.0
 20
1085.0
 10
-844.337402
 20
1084.999512
 10
-844.337402
 20
1083.384766
 10
-853.927246
 20
1083.384766
 42
0.414214
 10
-855.54248
 20
1081.769531
 10
-855.54248
 20
1059.056641
 10
-856.276367
 20
1054.895508
 42
0.466313
 10
-854.685547
 20
1052.999878
 10
-843.983887
 20
1053.0
 42
0.469821
 10
-842.396545
 20
1054.914185
 10
-843.176758
 20
1059.056641
 10
-844.186035
 20
1059.056641
 10
-844.186035
 20
1055.725586
 10
-844.892578
 20
1055.019043
 10
-850.444824
 20
1055.019043
 10
-851.151367
 20
1055.725586
 10
-851.151367
 20
1059.056641
 10
-853.523438
 20
1059.056641
 10
-853.523438
 20
1078.337402
 42
-0.414214
 10
-850.495117
 20
1081.365723
 10
-841.410156
 20
1081.365723
 10
-841.410156
 20
1082.879883
 10
-835.0
 20
1082.879883
  0
LWPOLYLINE
  5
3B
100
AcDbEntity
  8
LAYER22
370
    18
390
0
  6
Continuous
 62
     1
100
AcDbPolyline
 90
        6
 70
     1
 10
-830.000977
 20
1082.879883
 10
-839.999023
 20
1082.879883
 10
-837.041992
 20
1085.879883
 10
-837.041992
 20
1095.879883
 10
-833.041992
 20
1095.879883
 10
-833.041992
 20
1085.879883
  0
LWPOLYLINE
  5
3C
100
AcDbEntity
  8
LAYER22
370
    18
390
0
  6
Continuous
 62
     1
100
AcDbPolyline
 90
        2
 70
     0
 10
-837.041992
 20
1085.879883
 10
-833.041992
 20
1085.879883
  0
LWPOLYLINE
  5
3D
100
AcDbEntity
  8
LAYER22
370
    18
390
0
  6
Continuous
 62
     1
100
AcDbPolyline
 90
       22
 70
     0
 10
-837.041992
 20
1095.879883
 10
-833.191895
 20
1098.129883
 10
-836.749268
 20
1100.270508
 10
-833.487305
 20
1102.560303
 10
-836.433105
 20
1105.012207
 10
-833.803955
 20
1107.311035
 10
-836.125
 20
1109.634766
 10
-834.107178
 20
1111.860352
 10
-835.840088
 20
1113.905029
 10
-834.365479
 20
1115.732178
 10
-835.610107
 20
1117.355957
 10
-834.548096
 20
1118.473877
 10
-835.463379
 20
1119.557373
 10
-834.690186
 20
1120.602051
 10
-835.329346
 20
1121.570068
 10
-834.803955
 20
1122.311768
 10
-835.220947
 20
1123.192383
 10
-834.899414
 20
1123.743408
 10
-835.159424
 20
1124.116455
 10
-834.961182
 20
1124.66748
 10
-835.0979
 20
1125.039063
 10
-835.0
 20
1125.870117
  0
LWPOLYLINE
  5
3E
100
AcDbEntity
  8
LAYER22
370
    18
390
0
  6
Continuous
 62
     1
100
AcDbPolyline
 90
        4
 70
     1
 10
-850.696777
 20
1079.246094
 10
-844.640137
 20
1079.246094
 10
-844.640137
 20
1055.019043
 10
-850.696777
 20
1055.019043
  0
LWPOLYLINE
  5
3F
100
AcDbEntity
  8
LAYER22
370
    18
390
0
  6
Continuous
 62
     1
100
AcDbPolyline
 90
        4
 70
     1
 10
-844.640137
 20
1073.693848
 10
-825.359375
 20
1073.693848
 10
-825.359375
 20
1060.570801
 10
-844.640137
 20
1060.570801
  0
LWPOLYLINE
  5
40
100
AcDbEntity
  8
LAYER22
370
    18
390
0
  6
Continuous
 62
     1
100
AcDbPolyline
 90
        4
 70
     1
 10
-825.359375
 20
1079.246094
 10
-819.302734
 20
1079.246094
 10
-819.302734
 20
1055.019043
 10
-825.359375
 20
1055.019043
  0
LWPOLYLINE
  5
41
100
AcDbEntity
  8
LAYER22
370
    18
390
0
  6
Continuous
 62
     1
100
AcDbPolyline
 90
        4
 70
     1
 10
-829.952637
 20
1060.570801
 10
-829.952637
 20
1033.0
 10
-840.047363
 20
1033.0
 10
-840.047363
 20
1060.570801
  0
LWPOLYLINE
  5
42
100
AcDbEntity
  8
LAYER22
370
    25
390
0
  6
Continuous
 62
     2
100
AcDbPolyline
 90
        4
 70
     1
 10
-813.0
 20
1053.0
 10
-813.0
 20
1085.0
 10
-681.0
 20
1085.0
 10
-681.0
 20
1053.0
  0
LWPOLYLINE
  5
43
100
AcDbEntity
  8
LAYER22
370
    25
390
0
  6
Continuous
 62
     2
100
AcDbPolyline
 90
        4
 70
     1
 10
-989.0
 20
1053.0
 10
-989.0
 20
1085.0
 10
-857.0
 20
1085.0
 10
-857.0
 20
1053.0
  0
LWPOLYLINE
  5
44
100
AcDbEntity
  8
LAYER22
370
    18
390
0
  6
Continuous
 62
     1
100
AcDbPolyline
 90
        4
 70
     1
 10
-1007.0
 20
-1595.0
 10
-1007.0
 20
1033.0
 10
-992.0
 20
1033.0
 10
-992.0
 20
-1595.0
  0
LWPOLYLINE
  5
45
100
AcDbEntity
  8
LAYER22
370
    13
390
0
  6
DASHDOT
 62
     5
100
AcDbPolyline
 90
        2
 70
     0
 10
-835.0
 20
1085.0
 10
-835.0
 20
-1595.0
  0
LWPOLYLINE
  5
46
100
AcDbEntity
  8
LAYER22
370
    18
390
0
  6
Continuous
 62
     1
100
AcDbPolyline
 90
        4
 70
     1
 10
-820.0
 20
-1595.0
 10
-820.0
 20
1033.0
 10
-678.0
 20
1033.0
 10
-678.0
 20
-1595.0
  0
LWPOLYLINE
  5
47
100
AcDbEntity
  8
LAYER22
370
    18
390
0
  6
Continuous
 62
     1
100
AcDbPolyline
 90
        4
 70
     1
 10
-678.0
 20
-1595.0
 10
-678.0
 20
1033.0
 10
-663.0
 20
1033.0
 10
-663.0
 20
-1595.0
  0
LWPOLYLINE
  5
48
100
AcDbEntity
  8
LAYER22
370
    18
390
0
  6
Continuous
 62
     1
100
AcDbPolyline
 90
        6
 70
     1
 10
-992.0
 20
1033.0
 10
-992.0
 20
1050.0
 42
-0.414214
 10
-989.0
 20
1053.0
 10
-681.0
 20
1053.0
 42
-0.414214
 10
-678.0
 20
1050.0
 10
-678.0
 20
1033.0
  0
LWPOLYLINE
  5
49
100
AcDbEntity
  8
LAYER22
370
    18
390
0
  6
Continuous
 62
     1
100
AcDbPolyline
 90
        6
 70
     1
 10
-992.0
 20
-1595.0
 10
-992.0
 20
-1612.0
 42
0.414214
 10
-989.0
 20
-1615.0
 10
-681.0
 20
-1615.0
 42
0.414214
 10
-678.0
 20
-1612.0
 10
-678.0
 20
-1595.0
  0
LWPOLYLINE
  5
4A
100
AcDbEntity
  8
LAYER22
370
    13
390
0
  6
DASHDOT
 62
     5
100
AcDbPolyline
 90
        2
 70
     0
 10
-343.0
 20
777.412109
 10
907.0
 20
777.412109
  0
LWPOLYLINE
  5
4B
100
AcDbEntity
  8
LAYER22
370
    25
390
0
  6
Continuous
 62
     2
100
AcDbPolyline
 90
       16
 70
     1
 10
-197.090881
 20
795.750916
 10
-189.65834
 20
937.556213
 10
-184.665192
 20
937.294556
 10
-185.031586
 20
930.304138
 10
-186.121887
 20
930.361267
 42
1.0
 10
-181.975235
 20
930.143921
 10
-183.034317
 20
930.199463
 10
-182.667923
 20
937.189819
 10
-177.674789
 20
936.928162
 10
-185.10733
 20
795.122803
 10
-190.100479
 20
795.384521
 10
-189.737869
 20
802.302734
 10
-188.678772
 20
802.247253
 42
1.035413
 10
-192.825424
 20
802.464539
 10
-191.735123
 20
802.40741
 10
-192.097733
 20
795.489197
  0
LWPOLYLINE
  5
4C
100
AcDbEntity
  8
LAYER22
370
    25
390
0
  6
Continuous
 62
     2
100
AcDbPolyline
 90
       21
 70
     0
 10
-177.517578
 20
940.929688
 10
-183.53125
 20
940.929688
 10
-183.53125
 20
930.251953
 10
-181.970703
 20
930.251465
 42
-0.999763
 10
-186.091797
 20
930.251465
 10
-184.53125
 20
930.251465
 10
-184.53125
 20
940.202637
 10
-190.030273
 20
937.102539
 10
-190.661133
 20
937.878906
 10
-183.483398
 20
942.21875
 10
-183.483398
 20
945.883789
 10
-185.507813
 20
947.298828
 10
-185.506836
 20
949.251953
 10
-185.009766
 20
949.751953
 10
-177.53125
 20
949.751953
 10
-177.53125
 20
948.751953
 10
-184.541016
 20
948.751953
 10
-184.541016
 20
947.760742
 10
-182.398438
 20
946.0625
 10
-182.398438
 20
942.21875
 10
-177.517578
 20
942.21875
  0
LWPOLYLINE
  5
4D
100
AcDbEntity
  8
LAYER22
370
    25
390
0
  6
Continuous
 62
     2
100
AcDbPolyline
 90
       21
 70
     0
 10
-177.544922
 20
940.929688
 10
-171.53125
 20
940.929688
 10
-171.53125
 20
930.251953
 10
-173.091797
 20
930.251465
 42
0.999763
 10
-168.970703
 20
930.251465
 10
-170.53125
 20
930.251465
 10
-170.53125
 20
940.202637
 10
-165.032227
 20
937.102539
 10
-164.401367
 20
937.878906
 10
-171.579102
 20
942.21875
 10
-171.579102
 20
945.883789
 10
-169.554688
 20
947.298828
 10
-169.555664
 20
949.251953
 10
-170.052734
 20
949.751953
 10
-177.53125
 20
949.751953
 10
-177.53125
 20
948.751953
 10
-170.521484
 20
948.751953
 10
-170.521484
 20
947.760742
 10
-172.664063
 20
946.0625
 10
-172.664063
 20
942.21875
 10
-177.544922
 20
942.21875
  0
LWPOLYLINE
  5
4E
100
AcDbEntity
  8
LAYER22
370
    25
390
0
  6
Continuous
 62
     2
100
AcDbPolyline
 90
       13
 70
     0
 10
-207.867188
 20
795.897949
 10
-212.69043
 20
795.897949
 10
-224.750977
 20
802.859863
 10
-223.970703
 20
804.211914
 42
1.0
 10
-226.03125
 20
800.642578
 10
-225.250977
 20
801.994141
 10
-216.00293
 20
796.655762
 10
-222.245117
 20
794.272949
 10
-221.889648
 20
793.338867
 10
-214.991211
 20
795.970703
 10
-213.819336
 20
795.262207
 10
-212.734375
 20
794.946289
 10
-207.867188
 20
794.946289
  0
LWPOLYLINE
  5
4F
100
AcDbEntity
  8
LAYER22
370
    25
390
0
  6
Continuous
 62
     2
100
AcDbPolyline
 90
       13
 70
     0
 10
-207.867188
 20
795.897949
 10
-203.043945
 20
795.897949
 10
-190.983398
 20
802.859863
 10
-191.763672
 20
804.211914
 42
-1.0
 10
-189.703125
 20
800.642578
 10
-190.483398
 20
801.994141
 10
-199.731445
 20
796.655762
 10
-193.489258
 20
794.272949
 10
-193.844727
 20
793.338867
 10
-200.743164
 20
795.970703
 10
-201.915039
 20
795.262207
 10
-203.0
 20
794.946289
 10
-207.867188
 20
794.946289
  0
LWPOLYLINE
  5
50
100
AcDbEntity
  8
LAYER22
370
    25
390
0
  6
Continuous
 62
     2
100
AcDbPolyline
 90
       11
 70
     0
 10
-157.822266
 20
791.749512
 10
-163.835938
 20
791.749512
 10
-163.835938
 20
802.427246
 10
-162.275391
 20
802.427734
 42
0.999763
 10
-166.396484
 20
802.427734
 10
-164.835938
 20
802.427734
 10
-164.835938
 20
792.476563
 10
-170.334961
 20
795.57666
 10
-170.96582
 20
794.800293
 10
-163.788086
 20
790.460449
 10
-157.822266
 20
790.460449
  0
LWPOLYLINE
  5
51
100
AcDbEntity
  8
LAYER22
370
    25
390
0
  6
Continuous
 62
     2
100
AcDbPolyline
 90
       11
 70
     0
 10
-157.849609
 20
791.749512
 10
-151.835938
 20
791.749512
 10
-151.835938
 20
802.427246
 10
-153.396484
 20
802.427734
 42
-0.999763
 10
-149.275391
 20
802.427734
 10
-150.835938
 20
802.427734
 10
-150.835938
 20
792.476563
 10
-145.336914
 20
795.57666
 10
-144.706055
 20
794.800293
 10
-151.883789
 20
790.460449
 10
-157.849609
 20
790.460449
  0
LWPOLYLINE
  5
52
100
AcDbEntity
  8
LAYER22
370
    25
390
0
  6
Continuous
 62
     2
100
AcDbPolyline
 90
       13
 70
     0
 10
-107.800781
 20
795.897949
 10
-112.624023
 20
795.897949
 10
-124.68457
 20
802.859863
 10
-123.904297
 20
804.211914
 42
1.0
 10
-125.964844
 20
800.642578
 10
-125.18457
 20
801.994141
 10
-115.936523
 20
796.655762
 10
-122.178711
 20
794.272949
 10
-121.823242
 20
793.338867
 10
-114.924805
 20
795.970703
 10
-113.75293
 20
795.262207
 10
-112.667969
 20
794.946289
 10
-107.800781
 20
794.946289
  0
LWPOLYLINE
  5
53
100
AcDbEntity
  8
LAYER22
370
    25
390
0
  6
Continuous
 62
     2
100
AcDbPolyline
 90
       13
 70
     0
 10
-107.800781
 20
795.897949
 10
-102.977539
 20
795.897949
 10
-90.916992
 20
802.859863
 10
-91.697266
 20
804.211914
 42
-1.0
 10
-89.636719
 20
800.642578
 10
-90.416992
 20
801.994141
 10
-99.665039
 20
796.655762
 10
-93.422852
 20
794.272949
 10
-93.77832
 20
793.338867
 10
-100.676758
 20
795.970703
 10
-101.848633
 20
795.262207
 10
-102.933594
 20
794.946289
 10
-107.800781
 20
794.946289
  0
LWPOLYLINE
  5
54
100
AcDbEntity
  8
LAYER22
370
    25
390
0
  6
Continuous
 62
     2
100
AcDbPolyline
 90
        4
 70
     1
 10
-97.666016
 20
760.912109
 10
-97.666016
 20
793.912109
 10
5.333984
 20
793.912109
 10
5.333984
 20
760.912109
  0
LWPOLYLINE
  5
55
100
AcDbEntity
  8
LAYER22
370
    25
390
0
  6
Continuous
 62
     2
100
AcDbPolyline
 90
       10
 70
     1
 10
-97.666016
 20
808.412109
 10
-97.666016
 20
803.412109
 10
-90.666016
 20
803.412109
 10
-90.666016
 20
804.50293
 42
-1.0
 10
-90.666016
 20
800.351563
 10
-90.666016
 20
801.412109
 10
-97.666016
 20
801.412109
 10
-97.666016
 20
796.412109
 10
27.333984
 20
796.412109
 10
27.333984
 20
808.412109
  0
LWPOLYLINE
  5
56
100
AcDbEntity
  8
LAYER22
370
    25
390
0
  6
Continuous
 62
     2
100
AcDbPolyline
 90
       10
 70
     1
 10
-97.666016
 20
758.412109
 10
-97.666016
 20
753.412109
 10
-90.666016
 20
753.412109
 10
-90.666016
 20
754.50293
 42
-1.0
 10
-90.666016
 20
750.351563
 10
-90.666016
 20
751.412109
 10
-97.666016
 20
751.412109
 10
-97.666016
 20
746.412109
 10
27.333984
 20
746.412109
 10
27.333984
 20
758.412109
  0
LWPOLYLINE
  5
57
100
AcDbEntity
  8
LAYER22
370
    35
390
0
  6
Continuous
 62
     4
100
AcDbPolyline
 90
        6
 70
     0
 10
27.333984
 20
808.412109
 10
27.333984
 20
790.817383
 10
5.333984
 20
786.537109
 10
5.333984
 20
768.287109
 10
27.333984
 20
764.006836
 10
27.333984
 20
746.412109
  0
LWPOLYLINE
  5
58
100
AcDbEntity
  8
LAYER22
370
    25
390
0
  6
Continuous
 62
     2
100
AcDbPolyline
 90
        8
 70
     1
 10
27.833984
 20
806.850586
 10
29.730469
 20
806.850586
 42
-0.5275
 10
29.730469
 20
792.318359
 10
28.029297
 20
792.318848
 10
28.029297
 20
794.356445
 10
29.730469
 20
794.356445
 42
0.686995
 10
29.730469
 20
804.8125
 10
27.833984
 20
804.812988
  0
LWPOLYLINE
  5
59
100
AcDbEntity
  8
LAYER22
370
    25
390
0
  6
Continuous
 62
     2
100
AcDbPolyline
 90
       14
 70
     1
 10
21.925781
 20
808.912109
 10
27.833984
 20
808.912109
 10
27.833984
 20
807.350586
 10
29.730469
 20
807.350586
 10
29.730469
 20
806.850586
 10
27.833984
 20
806.850586
 10
27.833984
 20
804.812988
 10
29.730469
 20
804.812988
 10
29.730469
 20
804.312988
 10
27.833984
 20
804.312988
 10
27.833984
 20
803.391113
 10
27.333984
 20
803.391113
 10
27.333984
 20
808.412109
 10
21.925781
 20
808.412109
  0
LWPOLYLINE
  5
5A
100
AcDbEntity
  8
LAYER22
370
    25
390
0
  6
Continuous
 62
     2
100
AcDbPolyline
 90
       12
 70
     1
 10
27.833984
 20
790.756836
 10
27.833984
 20
791.818359
 10
29.730469
 20
791.818359
 10
29.730469
 20
792.318359
 10
27.833984
 20
792.318359
 10
27.833984
 20
794.355957
 10
29.730469
 20
794.355957
 10
29.730469
 20
794.855957
 10
27.833984
 20
794.855957
 10
27.833984
 20
795.777832
 10
27.333984
 20
795.777832
 10
27.333984
 20
790.756836
  0
LWPOLYLINE
  5
5B
100
AcDbEntity
  8
LAYER22
370
    25
390
0
  6
Continuous
 62
     2
100
AcDbPolyline
 90
        8
 70
     1
 10
27.833984
 20
747.973633
 10
29.730469
 20
747.973633
 42
0.5275
 10
29.730469
 20
762.505859
 10
28.029297
 20
762.505371
 10
28.029297
 20
760.467773
 10
29.730469
 20
760.467773
 42
-0.686995
 10
29.730469
 20
750.011719
 10
27.833984
 20
750.01123
  0
LWPOLYLINE
  5
5C
100
AcDbEntity
  8
LAYER22
370
    25
390
0
  6
Continuous
 62
     2
100
AcDbPolyline
 90
       14
 70
     1
 10
21.925781
 20
745.912109
 10
27.833984
 20
745.912109
 10
27.833984
 20
747.473633
 10
29.730469
 20
747.473633
 10
29.730469
 20
747.973633
 10
27.833984
 20
747.973633
 10
27.833984
 20
750.01123
 10
29.730469
 20
750.01123
 10
29.730469
 20
750.51123
 10
27.833984
 20
750.51123
 10
27.833984
 20
751.433105
 10
27.333984
 20
751.433105
 10
27.333984
 20
746.412109
 10
21.925781
 20
746.412109
  0
LWPOLYLINE
  5
5D
100
AcDbEntity
  8
LAYER22
370
    25
390
0
  6
Continuous
 62
     2
100
AcDbPolyline
 90
       12
 70
     1
 10
27.833984
 20
764.067383
 10
27.833984
 20
763.005859
 10
29.730469
 20
763.005859
 10
29.730469
 20
762.505859
 10
27.833984
 20
762.505859
 10
27.833984
 20
760.468262
 10
29.730469
 20
760.468262
 10
29.730469
 20
759.968262
 10
27.833984
 20
759.968262
 10
27.833984
 20
759.046387
 10
27.333984
 20
759.046387
 10
27.333984
 20
764.067383
  0
LWPOLYLINE
  5
5E
100
AcDbEntity
  8
LAYER22
370
    25
390
0
  6
Continuous
 62
     2
100
AcDbPolyline
 90
        4
 70
     1
 10
-343.0
 20
760.912109
 10
-343.0
 20
793.912109
 10
-218.0
 20
793.912109
 10
-218.0
 20
760.912109
  0
LWPOLYLINE
  5
5F
100
AcDbEntity
  8
LAYER22
370
    25
390
0
  6
Continuous
 62
     2
100
AcDbPolyline
 90
       10
 70
     1
 10
-218.0
 20
808.412109
 10
-218.0
 20
803.412109
 10
-225.0
 20
803.412109
 10
-225.0
 20
804.50293
 42
1.0
 10
-225.0
 20
800.351563
 10
-225.0
 20
801.412109
 10
-218.0
 20
801.412109
 10
-218.0
 20
796.412109
 10
-343.0
 20
796.412109
 10
-343.0
 20
808.412109
  0
LWPOLYLINE
  5
60
100
AcDbEntity
  8
LAYER22
370
    25
390
0
  6
Continuous
 62
     2
100
AcDbPolyline
 90
       10
 70
     1
 10
-218.0
 20
758.412109
 10
-218.0
 20
753.412109
 10
-225.0
 20
753.412109
 10
-225.0
 20
754.50293
 42
1.0
 10
-225.0
 20
750.351563
 10
-225.0
 20
751.412109
 10
-218.0
 20
751.412109
 10
-218.0
 20
746.412109
 10
-343.0
 20
746.412109
 10
-343.0
 20
758.412109
  0
LWPOLYLINE
  5
61
100
AcDbEntity
  8
LAYER22
370
    35
390
0
  6
Continuous
 62
     4
100
AcDbPolyline
 90
        8
 70
     0
 10
907.0
 20
746.412109
 10
892.300781
 20
746.412109
 10
892.300781
 20
764.006836
 10
870.10791
 20
768.188477
 10
870.10791
 20
786.635254
 10
892.282227
 20
790.915039
 10
892.282227
 20
808.912109
 10
907.0
 20
808.912109
  0
LWPOLYLINE
  5
62
100
AcDbEntity
  8
LAYER22
370
    18
390
0
  6
DASHED
 62
     1
100
AcDbPolyline
 90
        4
 70
     1
 10
-218.0
 20
793.912109
 10
907.0
 20
793.912109
 10
907.0
 20
760.912109
 10
-218.0
 20
760.912109
  0
LWPOLYLINE
  5
63
100
AcDbEntity
  8
LAYER22
370
    25
390
0
  6
Continuous
 62
     2
100
AcDbPolyline
 90
       21
 70
     0
 10
-138.119141
 20
940.929688
 10
-144.132813
 20
940.929688
 10
-144.132813
 20
930.251953
 10
-142.572266
 20
930.251465
 42
-0.999763
 10
-146.693359
 20
930.251465
 10
-145.132813
 20
930.251465
 10
-145.132813
 20
940.202637
 10
-150.631836
 20
937.102539
 10
-151.262695
 20
937.878906
 10
-144.084961
 20
942.21875
 10
-144.084961
 20
945.883789
 10
-146.109375
 20
947.298828
 10
-146.108398
 20
949.251953
 10
-145.611328
 20
949.751953
 10
-138.132813
 20
949.751953
 10
-138.132813
 20
948.751953
 10
-145.142578
 20
948.751953
 10
-145.142578
 20
947.760742
 10
-143.0
 20
946.0625
 10
-143.0
 20
942.21875
 10
-138.119141
 20
942.21875
  0
LWPOLYLINE
  5
64
100
AcDbEntity
  8
LAYER22
370
    25
390
0
  6
Continuous
 62
     2
100
AcDbPolyline
 90
       21
 70
     0
 10
-138.146484
 20
940.929688
 10
-132.132813
 20
940.929688
 10
-132.132813
 20
930.251953
 10
-133.693359
 20
930.251465
 42
0.999763
 10
-129.572266
 20
930.251465
 10
-131.132813
 20
930.251465
 10
-131.132813
 20
940.202637
 10
-125.633789
 20
937.102539
 10
-125.00293
 20
937.878906
 10
-132.180664
 20
942.21875
 10
-132.180664
 20
945.883789
 10
-130.15625
 20
947.298828
 10
-130.157227
 20
949.251953
 10
-130.654297
 20
949.751953
 10
-138.132813
 20
949.751953
 10
-138.132813
 20
948.751953
 10
-131.123047
 20
948.751953
 10
-131.123047
 20
947.760742
 10
-133.265625
 20
946.0625
 10
-133.265625
 20
942.21875
 10
-138.146484
 20
942.21875
  0
LWPOLYLINE
  5
65
100
AcDbEntity
  8
LAYER22
370
    25
390
0
  6
Continuous
 62
     2
100
AcDbPolyline
 90
       16
 70
     1
 10
-157.975525
 20
795.750916
 10
-165.408066
 20
937.556213
 10
-170.401215
 20
937.294556
 10
-170.034821
 20
930.304138
 10
-168.944519
 20
930.361267
 42
-1.0
 10
-173.091171
 20
930.143921
 10
-172.032089
 20
930.199463
 10
-172.398483
 20
937.189819
 10
-177.391617
 20
936.928162
 10
-169.959076
 20
795.122803
 10
-164.965927
 20
795.384521
 10
-165.328537
 20
802.302734
 10
-166.387634
 20
802.247253
 42
-1.035413
 10
-162.240982
 20
802.464539
 10
-163.331284
 20
802.40741
 10
-162.968674
 20
795.489197
  0
LWPOLYLINE
  5
66
100
AcDbEntity
  8
LAYER22
370
    25
390
0
  6
Continuous
 62
     2
100
AcDbPolyline
 90
       16
 70
     1
 10
-157.692444
 20
795.750916
 10
-150.259903
 20
937.556213
 10
-145.266754
 20
937.294556
 10
-145.633148
 20
930.304138
 10
-146.72345
 20
930.361267
 42
1.0
 10
-142.576797
 20
930.143921
 10
-143.63588
 20
930.199463
 10
-143.269485
 20
937.189819
 10
-138.276352
 20
936.928162
 10
-145.708893
 20
795.122803
 10
-150.702042
 20
795.384521
 10
-150.339432
 20
802.302734
 10
-149.280334
 20
802.247253
 42
1.035413
 10
-153.426987
 20
802.464539
 10
-152.336685
 20
802.40741
 10
-152.699295
 20
795.489197
  0
LWPOLYLINE
  5
67
100
AcDbEntity
  8
LAYER22
370
    25
390
0
  6
Continuous
 62
     2
100
AcDbPolyline
 90
       16
 70
     1
 10
-118.577087
 20
795.750916
 10
-126.009636
 20
937.556213
 10
-131.002777
 20
937.294556
 10
-130.636383
 20
930.304138
 10
-129.546082
 20
930.361267
 42
-1.0
 10
-133.692734
 20
930.143921
 10
-132.633652
 20
930.199463
 10
-133.000046
 20
937.189819
 10
-137.993179
 20
936.928162
 10
-130.560638
 20
795.122803
 10
-125.56749
 20
795.384521
 10
-125.930099
 20
802.302734
 10
-126.989189
 20
802.247253
 42
-1.035413
 10
-122.842545
 20
802.464539
 10
-123.932838
 20
802.40741
 10
-123.570229
 20
795.489197
  0
LWPOLYLINE
  5
68
100
AcDbEntity
  8
LAYER22
370
    25
390
0
  6
Continuous
 62
     2
100
AcDbPolyline
 90
       16
 70
     1
 10
-197.090881
 20
759.073303
 10
-189.65834
 20
617.268005
 10
-184.665192
 20
617.529663
 10
-185.031586
 20
624.520081
 10
-186.121887
 20
624.462952
 42
-1.0
 10
-181.975235
 20
624.680298
 10
-183.034317
 20
624.624756
 10
-182.667923
 20
617.634399
 10
-177.674789
 20
617.896057
 10
-185.10733
 20
759.701416
 10
-190.100479
 20
759.439697
 10
-189.737869
 20
752.521484
 10
-188.678772
 20
752.576965
 42
-1.035413
 10
-192.825424
 20
752.35968
 10
-191.735123
 20
752.416809
 10
-192.097733
 20
759.335022
  0
LWPOLYLINE
  5
69
100
AcDbEntity
  8
LAYER22
370
    25
390
0
  6
Continuous
 62
     2
100
AcDbPolyline
 90
       21
 70
     0
 10
-177.517578
 20
613.894531
 10
-183.53125
 20
613.894531
 10
-183.53125
 20
624.572266
 10
-181.970703
 20
624.572754
 42
0.999763
 10
-186.091797
 20
624.572754
 10
-184.53125
 20
624.572754
 10
-184.53125
 20
614.621582
 10
-190.030273
 20
617.72168
 10
-190.661133
 20
616.945313
 10
-183.483398
 20
612.605469
 10
-183.483398
 20
608.94043
 10
-185.507813
 20
607.525391
 10
-185.506836
 20
605.572266
 10
-185.009766
 20
605.072266
 10
-177.53125
 20
605.072266
 10
-177.53125
 20
606.072266
 10
-184.541016
 20
606.072266
 10
-184.541016
 20
607.063477
 10
-182.398438
 20
608.761719
 10
-182.398438
 20
612.605469
 10
-177.517578
 20
612.605469
  0
LWPOLYLINE
  5
6A
100
AcDbEntity
  8
LAYER22
370
    25
390
0
  6
Continuous
 62
     2
100
AcDbPolyline
 90
       21
 70
     0
 10
-177.544922
 20
613.894531
 10
-171.53125
 20
613.894531
 10
-171.53125
 20
624.572266
 10
-173.091797
 20
624.572754
 42
-0.999763
 10
-168.970703
 20
624.572754
 10
-170.53125
 20
624.572754
 10
-170.53125
 20
614.621582
 10
-165.032227
 20
617.72168
 10
-164.401367
 20
616.945313
 10
-171.579102
 20
612.605469
 10
-171.579102
 20
608.94043
 10
-169.554688
 20
607.525391
 10
-169.555664
 20
605.572266
 10
-170.052734
 20
605.072266
 10
-177.53125
 20
605.072266
 10
-177.53125
 20
606.072266
 10
-170.521484
 20
606.072266
 10
-170.521484
 20
607.063477
 10
-172.664063
 20
608.761719
 10
-172.664063
 20
612.605469
 10
-177.544922
 20
612.605469
  0
LWPOLYLINE
  5
6B
100
AcDbEntity
  8
LAYER22
370
    25
390
0
  6
Continuous
 62
     2
100
AcDbPolyline
 90
       13
 70
     0
 10
-207.867188
 20
758.92627
 10
-212.69043
 20
758.92627
 10
-224.750977
 20
751.964355
 10
-223.970703
 20
750.612305
 42
-1.0
 10
-226.03125
 20
754.181641
 10
-225.250977
 20
752.830078
 10
-216.00293
 20
758.168457
 10
-222.245117
 20
760.55127
 10
-221.889648
 20
761.485352
 10
-214.991211
 20
758.853516
 10
-213.819336
 20
759.562012
 10
-212.734375
 20
759.87793
 10
-207.867188
 20
759.87793
  0
LWPOLYLINE
  5
6C
100
AcDbEntity
  8
LAYER22
370
    25
390
0
  6
Continuous
 62
     2
100
AcDbPolyline
 90
       13
 70
     0
 10
-207.867188
 20
758.92627
 10
-203.043945
 20
758.92627
 10
-190.983398
 20
751.964355
 10
-191.763672
 20
750.612305
 42
1.0
 10
-189.703125
 20
754.181641
 10
-190.483398
 20
752.830078
 10
-199.731445
 20
758.168457
 10
-193.489258
 20
760.55127
 10
-193.844727
 20
761.485352
 10
-200.743164
 20
758.853516
 10
-201.915039
 20
759.562012
 10
-203.0
 20
759.87793
 10
-207.867188
 20
759.87793
  0
LWPOLYLINE
  5
6D
100
AcDbEntity
  8
LAYER22
370
    25
390
0
  6
Continuous
 62
     2
100
AcDbPolyline
 90
       11
 70
     0
 10
-157.822266
 20
763.074707
 10
-163.835938
 20
763.074707
 10
-163.835938
 20
752.396973
 10
-162.275391
 20
752.396484
 42
-0.999763
 10
-166.396484
 20
752.396484
 10
-164.835938
 20
752.396484
 10
-164.835938
 20
762.347656
 10
-170.334961
 20
759.247559
 10
-170.96582
 20
760.023926
 10
-163.788086
 20
764.36377
 10
-157.822266
 20
764.36377
  0
LWPOLYLINE
  5
6E
100
AcDbEntity
  8
LAYER22
370
    25
390
0
  6
Continuous
 62
     2
100
AcDbPolyline
 90
       11
 70
     0
 10
-157.849609
 20
763.074707
 10
-151.835938
 20
763.074707
 10
-151.835938
 20
752.396973
 10
-153.396484
 20
752.396484
 42
0.999763
 10
-149.275391
 20
752.396484
 10
-150.835938
 20
752.396484
 10
-150.835938
 20
762.347656
 10
-145.336914
 20
759.247559
 10
-144.706055
 20
760.023926
 10
-151.883789
 20
764.36377
 10
-157.849609
 20
764.36377
  0
LWPOLYLINE
  5
6F
100
AcDbEntity
  8
LAYER22
370
    25
390
0
  6
Continuous
 62
     2
100
AcDbPolyline
 90
       13
 70
     0
 10
-107.800781
 20
758.92627
 10
-112.624023
 20
758.92627
 10
-124.68457
 20
751.964355
 10
-123.904297
 20
750.612305
 42
-1.0
 10
-125.964844
 20
754.181641
 10
-125.18457
 20
752.830078
 10
-115.936523
 20
758.168457
 10
-122.178711
 20
760.55127
 10
-121.823242
 20
761.485352
 10
-114.924805
 20
758.853516
 10
-113.75293
 20
759.562012
 10
-112.667969
 20
759.87793
 10
-107.800781
 20
759.87793
  0
LWPOLYLINE
  5
70
100
AcDbEntity
  8
LAYER22
370
    25
390
0
  6
Continuous
 62
     2
100
AcDbPolyline
 90
       13
 70
     0
 10
-107.800781
 20
758.92627
 10
-102.977539
 20
758.92627
 10
-90.916992
 20
751.964355
 10
-91.697266
 20
750.612305
 42
1.0
 10
-89.636719
 20
754.181641
 10
-90.416992
 20
752.830078
 10
-99.665039
 20
758.168457
 10
-93.422852
 20
760.55127
 10
-93.77832
 20
761.485352
 10
-100.676758
 20
758.853516
 10
-101.848633
 20
759.562012
 10
-102.933594
 20
759.87793
 10
-107.800781
 20
759.87793
  0
LWPOLYLINE
  5
71
100
AcDbEntity
  8
LAYER22
370
    25
390
0
  6
Continuous
 62
     2
100
AcDbPolyline
 90
       21
 70
     0
 10
-138.119141
 20
613.894531
 10
-144.132813
 20
613.894531
 10
-144.132813
 20
624.572266
 10
-142.572266
 20
624.572754
 42
0.999763
 10
-146.693359
 20
624.572754
 10
-145.132813
 20
624.572754
 10
-145.132813
 20
614.621582
 10
-150.631836
 20
617.72168
 10
-151.262695
 20
616.945313
 10
-144.084961
 20
612.605469
 10
-144.084961
 20
608.94043
 10
-146.109375
 20
607.525391
 10
-146.108398
 20
605.572266
 10
-145.611328
 20
605.072266
 10
-138.132813
 20
605.072266
 10
-138.132813
 20
606.072266
 10
-145.142578
 20
606.072266
 10
-145.142578
 20
607.063477
 10
-143.0
 20
608.761719
 10
-143.0
 20
612.605469
 10
-138.119141
 20
612.605469
  0
LWPOLYLINE
  5
72
100
AcDbEntity
  8
LAYER22
370
    25
390
0
  6
Continuous
 62
     2
100
AcDbPolyline
 90
       21
 70
     0
 10
-138.146484
 20
613.894531
 10
-132.132813
 20
613.894531
 10
-132.132813
 20
624.572266
 10
-133.693359
 20
624.572754
 42
-0.999763
 10
-129.572266
 20
624.572754
 10
-131.132813
 20
624.572754
 10
-131.132813
 20
614.621582
 10
-125.633789
 20
617.72168
 10
-125.00293
 20
616.945313
 10
-132.180664
 20
612.605469
 10
-132.180664
 20
608.94043
 10
-130.15625
 20
607.525391
 10
-130.157227
 20
605.572266
 10
-130.654297
 20
605.072266
 10
-138.132813
 20
605.072266
 10
-138.132813
 20
606.072266
 10
-131.123047
 20
606.072266
 10
-131.123047
 20
607.063477
 10
-133.265625
 20
608.761719
 10
-133.265625
 20
612.605469
 10
-138.146484
 20
612.605469
  0
LWPOLYLINE
  5
73
100
AcDbEntity
  8
LAYER22
370
    25
390
0
  6
Continuous
 62
     2
100
AcDbPolyline
 90
       16
 70
     1
 10
-157.975525
 20
759.073303
 10
-165.408066
 20
617.268005
 10
-170.401215
 20
617.529663
 10
-170.034821
 20
624.520081
 10
-168.944519
 20
624.462952
 42
1.0
 10
-173.091171
 20
624.680298
 10
-172.032089
 20
624.624756
 10
-172.398483
 20
617.634399
 10
-177.391617
 20
617.896057
 10
-169.959076
 20
759.701416
 10
-164.965927
 20
759.439697
 10
-165.328537
 20
752.521484
 10
-166.387634
 20
752.576965
 42
1.035413
 10
-162.240982
 20
752.35968
 10
-163.331284
 20
752.416809
 10
-162.968674
 20
759.335022
  0
LWPOLYLINE
  5
74
100
AcDbEntity
  8
LAYER22
370
    25
390
0
  6
Continuous
 62
     2
100
AcDbPolyline
 90
       16
 70
     1
 10
-157.692444
 20
759.073303
 10
-150.259903
 20
617.268005
 10
-145.266754
 20
617.529663
 10
-145.633148
 20
624.520081
 10
-146.72345
 20
624.462952
 42
-1.0
 10
-142.576797
 20
624.680298
 10
-143.63588
 20
624.624756
 10
-143.269485
 20
617.634399
 10
-138.276352
 20
617.896057
 10
-145.708893
 20
759.701416
 10
-150.702042
 20
759.439697
 10
-150.339432
 20
752.521484
 10
-149.280334
 20
752.576965
 42
-1.035413
 10
-153.426987
 20
752.35968
 10
-152.336685
 20
752.416809
 10
-152.699295
 20
759.335022
  0
LWPOLYLINE
  5
75
100
AcDbEntity
  8
LAYER22
370
    25
390
0
  6
Continuous
 62
     2
100
AcDbPolyline
 90
       16
 70
     1
 10
-118.577087
 20
759.073303
 10
-126.009636
 20
617.268005
 10
-131.002777
 20
617.529663
 10
-130.636383
 20
624.520081
 10
-129.546082
 20
624.462952
 42
1.0
 10
-133.692734
 20
624.680298
 10
-132.633652
 20
624.624756
 10
-133.000046
 20
617.634399
 10
-137.993179
 20
617.896057
 10
-130.560638
 20
759.701416
 10
-125.56749
 20
759.439697
 10
-125.930099
 20
752.521484
 10
-126.989189
 20
752.576965
 42
1.035413
 10
-122.842545
 20
752.35968
 10
-123.932838
 20
752.416809
 10
-123.570229
 20
759.335022
  0
LWPOLYLINE
  5
76
100
AcDbEntity
  8
LAYER22
370
    25
390
0
  6
Continuous
 62
     2
100
AcDbPolyline
 90
       16
 70
     1
 10
-198.877869
 20
444.533478
 10
-75.90358
 20
515.535767
 10
-73.403496
 20
511.205688
 10
-79.465614
 20
507.705566
 10
-80.011528
 20
508.651093
 42
1.0
 10
-77.935287
 20
505.055084
 10
-78.465576
 20
505.973541
 10
-72.403465
 20
509.473663
 10
-69.903389
 20
505.143555
 10
-192.87767
 20
434.141266
 10
-195.377747
 20
438.471344
 10
-189.37822
 20
441.935333
 10
-188.847931
 20
441.016876
 42
1.035413
 10
-190.924164
 20
444.612885
 10
-190.37825
 20
443.667358
 10
-196.377777
 20
440.2034
  0
LWPOLYLINE
  5
77
100
AcDbEntity
  8
LAYER22
370
    25
390
0
  6
Continuous
 62
     2
100
AcDbPolyline
 90
       22
 70
     0
 10
-61.832031
 20
513.369141
 10
-66.655273
 20
513.369141
 10
-78.71582
 20
506.406738
 10
-77.935547
 20
505.054688
 42
-1.0
 10
-79.996094
 20
508.624023
 10
-79.21582
 20
507.272461
 10
-69.967773
 20
512.611328
 10
-76.209961
 20
514.994141
 10
-75.854492
 20
515.928223
 10
-68.956055
 20
513.296387
 10
-67.78418
 20
514.004883
 10
-67.78418
 20
517.669922
 10
-69.808594
 20
519.084961
 10
-69.807617
 20
521.038086
 10
-69.310547
 20
521.538086
 10
-61.832031
 20
521.538086
 10
-61.832031
 20
520.538086
 10
-68.841797
 20
520.538086
 10
-68.841797
 20
519.546875
 10
-66.699219
 20
517.848633
 10
-66.699219
 20
514.320801
 10
-61.832031
 20
514.320801
  0
LWPOLYLINE
  5
78
100
AcDbEntity
  8
LAYER22
370
    25
390
0
  6
Continuous
 62
     2
100
AcDbPolyline
 90
       22
 70
     0
 10
-61.832031
 20
513.369141
 10
-57.008789
 20
513.369141
 10
-44.948242
 20
506.406738
 10
-45.728516
 20
505.054688
 42
1.0
 10
-43.667969
 20
508.624023
 10
-44.448242
 20
507.272461
 10
-53.696289
 20
512.611328
 10
-47.454102
 20
514.994141
 10
-47.80957
 20
515.928223
 10
-54.708008
 20
513.296387
 10
-55.879883
 20
514.004883
 10
-55.879883
 20
517.669922
 10
-53.855469
 20
519.084961
 10
-53.856445
 20
521.038086
 10
-54.353516
 20
521.538086
 10
-61.832031
 20
521.538086
 10
-61.832031
 20
520.538086
 10
-54.822266
 20
520.538086
 10
-54.822266
 20
519.546875
 10
-56.964844
 20
517.848633
 10
-56.964844
 20
514.320801
 10
-61.832031
 20
514.320801
  0
LWPOLYLINE
  5
79
100
AcDbEntity
  8
LAYER22
370
    25
390
0
  6
Continuous
 62
     2
100
AcDbPolyline
 90
       16
 70
     1
 10
75.213799
 20
444.534454
 10
-47.760483
 20
515.536743
 10
-50.260563
 20
511.206665
 10
-44.198452
 20
507.706543
 10
-43.652534
 20
508.652069
 42
-1.0
 10
-45.728775
 20
505.056061
 10
-45.198483
 20
505.974518
 10
-51.260597
 20
509.47464
 10
-53.760677
 20
505.144531
 10
69.213608
 20
434.142242
 10
71.713684
 20
438.472321
 10
65.714157
 20
441.93631
 10
65.183868
 20
441.017853
 42
-1.035413
 10
67.260109
 20
444.613861
 10
66.714188
 20
443.668335
 10
72.713722
 20
440.204376
  0
LWPOLYLINE
  5
7A
100
AcDbEntity
  8
LAYER22
370
    25
390
0
  6
Continuous
 62
     2
100
AcDbPolyline
 90
       13
 70
     0
 10
83.285156
 20
436.30957
 10
78.461914
 20
436.30957
 10
66.401367
 20
443.271973
 10
67.181641
 20
444.624023
 42
1.0
 10
65.121094
 20
441.054688
 10
65.901367
 20
442.40625
 10
75.149414
 20
437.067383
 10
68.907227
 20
434.68457
 10
69.262695
 20
433.750488
 10
76.161133
 20
436.382324
 10
77.333008
 20
435.673828
 10
78.417969
 20
435.35791
 10
83.285156
 20
435.35791
  0
LWPOLYLINE
  5
7B
100
AcDbEntity
  8
LAYER22
370
    25
390
0
  6
Continuous
 62
     2
100
AcDbPolyline
 90
       13
 70
     0
 10
83.285156
 20
436.30957
 10
88.108398
 20
436.30957
 10
100.168945
 20
443.271973
 10
99.388672
 20
444.624023
 42
-1.0
 10
101.449219
 20
441.054688
 10
100.668945
 20
442.40625
 10
91.420898
 20
437.067383
 10
97.663086
 20
434.68457
 10
97.307617
 20
433.750488
 10
90.40918
 20
436.382324
 10
89.237305
 20
435.673828
 10
88.152344
 20
435.35791
 10
83.285156
 20
435.35791
  0
LWPOLYLINE
  5
7C
100
AcDbEntity
  8
LAYER22
370
    25
390
0
  6
Continuous
 62
     2
100
AcDbPolyline
 90
       16
 70
     1
 10
91.356514
 20
444.535431
 10
214.330795
 20
515.53772
 10
216.830872
 20
511.207642
 10
210.768768
 20
507.70752
 10
210.222855
 20
508.653046
 42
1.0
 10
212.299088
 20
505.057037
 10
211.768799
 20
505.975494
 10
217.830902
 20
509.475616
 10
220.330994
 20
505.145508
 10
97.356705
 20
434.143219
 10
94.856628
 20
438.473297
 10
100.856155
 20
441.937286
 10
101.386444
 20
441.018829
 42
1.035413
 10
99.310204
 20
444.614838
 10
99.856125
 20
443.669312
 10
93.85659
 20
440.205353
  0
LWPOLYLINE
  5
7D
100
AcDbEntity
  8
LAYER22
370
    25
390
0
  6
Continuous
 62
     2
100
AcDbPolyline
 90
       22
 70
     0
 10
228.402344
 20
513.371094
 10
223.579102
 20
513.371094
 10
211.518555
 20
506.408691
 10
212.298828
 20
505.056641
 42
-1.0
 10
210.238281
 20
508.625977
 10
211.018555
 20
507.274414
 10
220.266602
 20
512.613281
 10
214.024414
 20
514.996094
 10
214.379883
 20
515.930176
 10
221.27832
 20
513.29834
 10
222.450195
 20
514.006836
 10
222.450195
 20
517.671875
 10
220.425781
 20
519.086914
 10
220.426758
 20
521.040039
 10
220.923828
 20
521.540039
 10
228.402344
 20
521.540039
 10
228.402344
 20
520.540039
 10
221.392578
 20
520.540039
 10
221.392578
 20
519.548828
 10
223.535156
 20
517.850586
 10
223.535156
 20
514.322754
 10
228.402344
 20
514.322754
  0
LWPOLYLINE
  5
7E
100
AcDbEntity
  8
LAYER22
370
    25
390
0
  6
Continuous
 62
     2
100
AcDbPolyline
 90
       22
 70
     0
 10
228.402344
 20
513.371094
 10
233.225586
 20
513.371094
 10
245.286133
 20
506.408691
 10
244.505859
 20
505.056641
 42
1.0
 10
246.566406
 20
508.625977
 10
245.786133
 20
507.274414
 10
236.538086
 20
512.613281
 10
242.780273
 20
514.996094
 10
242.424805
 20
515.930176
 10
235.526367
 20
513.29834
 10
234.354492
 20
514.006836
 10
234.354492
 20
517.671875
 10
236.378906
 20
519.086914
 10
236.37793
 20
521.040039
 10
235.880859
 20
521.540039
 10
228.402344
 20
521.540039
 10
228.402344
 20
520.540039
 10
235.412109
 20
520.540039
 10
235.412109
 20
519.548828
 10
233.269531
 20
517.850586
 10
233.269531
 20
514.322754
 10
228.402344
 20
514.322754
  0
LWPOLYLINE
  5
7F
100
AcDbEntity
  8
LAYER22
370
    25
390
0
  6
Continuous
 62
     2
100
AcDbPolyline
 90
       16
 70
     1
 10
365.448181
 20
444.536407
 10
242.473892
 20
515.538696
 10
239.973816
 20
511.208618
 10
246.035919
 20
507.708496
 10
246.581833
 20
508.654022
 42
-1.0
 10
244.5056
 20
505.058014
 10
245.035889
 20
505.976471
 10
238.973785
 20
509.476593
 10
236.473694
 20
505.146484
 10
359.447968
 20
434.144196
 10
361.948059
 20
438.474274
 10
355.948547
 20
441.938263
 10
355.418243
 20
441.019806
 42
-1.035413
 10
357.494476
 20
444.615814
 10
356.948578
 20
443.670288
 10
362.94809
 20
440.206329
  0
LWPOLYLINE
  5
80
100
AcDbEntity
  8
LAYER22
370
    25
390
0
  6
Continuous
 62
     2
100
AcDbPolyline
 90
       16
 70
     1
 10
-198.877869
 20
386.290741
 10
-75.90358
 20
315.288452
 10
-73.403496
 20
319.61853
 10
-79.465614
 20
323.118652
 10
-80.011528
 20
322.173126
 42
-1.0
 10
-77.935287
 20
325.769135
 10
-78.465576
 20
324.850677
 10
-72.403465
 20
321.350555
 10
-69.903389
 20
325.680664
 10
-192.87767
 20
396.682953
 10
-195.377747
 20
392.352875
 10
-189.37822
 20
388.888885
 10
-188.847931
 20
389.807343
 42
-1.035413
 10
-190.924164
 20
386.211334
 10
-190.37825
 20
387.15686
 10
-196.377777
 20
390.620819
  0
LWPOLYLINE
  5
81
100
AcDbEntity
  8
LAYER22
370
    25
390
0
  6
Continuous
 62
     2
100
AcDbPolyline
 90
       22
 70
     0
 10
-61.832031
 20
317.455078
 10
-66.655273
 20
317.455078
 10
-78.71582
 20
324.41748
 10
-77.935547
 20
325.769531
 42
1.0
 10
-79.996094
 20
322.200195
 10
-79.21582
 20
323.551758
 10
-69.967773
 20
318.212891
 10
-76.209961
 20
315.830078
 10
-75.854492
 20
314.895996
 10
-68.956055
 20
317.527832
 10
-67.78418
 20
316.819336
 10
-67.78418
 20
313.154297
 10
-69.808594
 20
311.739258
 10
-69.807617
 20
309.786133
 10
-69.310547
 20
309.286133
 10
-61.832031
 20
309.286133
 10
-61.832031
 20
310.286133
 10
-68.841797
 20
310.286133
 10
-68.841797
 20
311.277344
 10
-66.699219
 20
312.975586
 10
-66.699219
 20
316.503418
 10
-61.832031
 20
316.503418
  0
LWPOLYLINE
  5
82
100
AcDbEntity
  8
LAYER22
370
    25
390
0
  6
Continuous
 62
     2
100
AcDbPolyline
 90
       22
 70
     0
 10
-61.832031
 20
317.455078
 10
-57.008789
 20
317.455078
 10
-44.948242
 20
324.41748
 10
-45.728516
 20
325.769531
 42
-1.0
 10
-43.667969
 20
322.200195
 10
-44.448242
 20
323.551758
 10
-53.696289
 20
318.212891
 10
-47.454102
 20
315.830078
 10
-47.80957
 20
314.895996
 10
-54.708008
 20
317.527832
 10
-55.879883
 20
316.819336
 10
-55.879883
 20
313.154297
 10
-53.855469
 20
311.739258
 10
-53.856445
 20
309.786133
 10
-54.353516
 20
309.286133
 10
-61.832031
 20
309.286133
 10
-61.832031
 20
310.286133
 10
-54.822266
 20
310.286133
 10
-54.822266
 20
311.277344
 10
-56.964844
 20
312.975586
 10
-56.964844
 20
316.503418
 10
-61.832031
 20
316.503418
  0
LWPOLYLINE
  5
83
100
AcDbEntity
  8
LAYER22
370
    25
390
0
  6
Continuous
 62
     2
100
AcDbPolyline
 90
       16
 70
     1
 10
75.213799
 20
386.289764
 10
-47.760483
 20
315.287476
 10
-50.260563
 20
319.617554
 10
-44.198452
 20
323.117676
 10
-43.652534
 20
322.17215
 42
1.0
 10
-45.728775
 20
325.768158
 10
-45.198483
 20
324.849701
 10
-51.260597
 20
321.349579
 10
-53.760677
 20
325.679688
 10
69.213608
 20
396.681976
 10
71.713684
 20
392.351898
 10
65.714157
 20
388.887909
 10
65.183868
 20
389.806366
 42
1.035413
 10
67.260109
 20
386.210358
 10
66.714188
 20
387.155884
 10
72.713722
 20
390.619843
  0
LWPOLYLINE
  5
84
100
AcDbEntity
  8
LAYER22
370
    25
390
0
  6
Continuous
 62
     2
100
AcDbPolyline
 90
       13
 70
     0
 10
83.285156
 20
394.514648
 10
78.461914
 20
394.514648
 10
66.401367
 20
387.552246
 10
67.181641
 20
386.200195
 42
-1.0
 10
65.121094
 20
389.769531
 10
65.901367
 20
388.417969
 10
75.149414
 20
393.756836
 10
68.907227
 20
396.139648
 10
69.262695
 20
397.07373
 10
76.161133
 20
394.441895
 10
77.333008
 20
395.150391
 10
78.417969
 20
395.466309
 10
83.285156
 20
395.466309
  0
LWPOLYLINE
  5
85
100
AcDbEntity
  8
LAYER22
370
    25
390
0
  6
Continuous
 62
     2
100
AcDbPolyline
 90
       13
 70
     0
 10
83.285156
 20
394.514648
 10
88.108398
 20
394.514648
 10
100.168945
 20
387.552246
 10
99.388672
 20
386.200195
 42
1.0
 10
101.449219
 20
389.769531
 10
100.668945
 20
388.417969
 10
91.420898
 20
393.756836
 10
97.663086
 20
396.139648
 10
97.307617
 20
397.07373
 10
90.40918
 20
394.441895
 10
89.237305
 20
395.150391
 10
88.152344
 20
395.466309
 10
83.285156
 20
395.466309
  0
LWPOLYLINE
  5
86
100
AcDbEntity
  8
LAYER22
370
    25
390
0
  6
Continuous
 62
     2
100
AcDbPolyline
 90
       16
 70
     1
 10
91.356514
 20
386.288788
 10
214.330795
 20
315.286499
 10
216.830872
 20
319.616577
 10
210.768768
 20
323.116699
 10
210.222855
 20
322.171173
 42
-1.0
 10
212.299088
 20
325.767181
 10
211.768799
 20
324.848724
 10
217.830902
 20
321.348602
 10
220.330994
 20
325.678711
 10
97.356705
 20
396.681
 10
94.856628
 20
392.350922
 10
100.856155
 20
388.886932
 10
101.386444
 20
389.805389
 42
-1.035413
 10
99.310204
 20
386.209381
 10
99.856125
 20
387.154907
 10
93.85659
 20
390.618866
  0
LWPOLYLINE
  5
87
100
AcDbEntity
  8
LAYER22
370
    25
390
0
  6
Continuous
 62
     2
100
AcDbPolyline
 90
       22
 70
     0
 10
228.402344
 20
317.453125
 10
223.579102
 20
317.453125
 10
211.518555
 20
324.415527
 10
212.298828
 20
325.767578
 42
1.0
 10
210.238281
 20
322.198242
 10
211.018555
 20
323.549805
 10
220.266602
 20
318.210938
 10
214.024414
 20
315.828125
 10
214.379883
 20
314.894043
 10
221.27832
 20
317.525879
 10
222.450195
 20
316.817383
 10
222.450195
 20
313.152344
 10
220.425781
 20
311.737305
 10
220.426758
 20
309.78418
 10
220.923828
 20
309.28418
 10
228.402344
 20
309.28418
 10
228.402344
 20
310.28418
 10
221.392578
 20
310.28418
 10
221.392578
 20
311.275391
 10
223.535156
 20
312.973633
 10
223.535156
 20
316.501465
 10
228.402344
 20
316.501465
  0
LWPOLYLINE
  5
88
100
AcDbEntity
  8
LAYER22
370
    25
390
0
  6
Continuous
 62
     2
100
AcDbPolyline
 90
       22
 70
     0
 10
228.402344
 20
317.453125
 10
233.225586
 20
317.453125
 10
245.286133
 20
324.415527
 10
244.505859
 20
325.767578
 42
-1.0
 10
246.566406
 20
322.198242
 10
245.786133
 20
323.549805
 10
236.538086
 20
318.210938
 10
242.780273
 20
315.828125
 10
242.424805
 20
314.894043
 10
235.526367
 20
317.525879
 10
234.354492
 20
316.817383
 10
234.354492
 20
313.152344
 10
236.378906
 20
311.737305
 10
236.37793
 20
309.78418
 10
235.880859
 20
309.28418
 10
228.402344
 20
309.28418
 10
228.402344
 20
310.28418
 10
235.412109
 20
310.28418
 10
235.412109
 20
311.275391
 10
233.269531
 20
312.973633
 10
233.269531
 20
316.501465
 10
228.402344
 20
316.501465
  0
LWPOLYLINE
  5
89
100
AcDbEntity
  8
LAYER22
370
    25
390
0
  6
Continuous
 62
     2
100
AcDbPolyline
 90
       16
 70
     1
 10
365.448181
 20
386.287811
 10
242.473892
 20
315.285522
 10
239.973816
 20
319.615601
 10
246.035919
 20
323.115723
 10
246.581833
 20
322.170197
 42
1.0
 10
244.5056
 20
325.766205
 10
245.035889
 20
324.847748
 10
238.973785
 20
321.347626
 10
236.473694
 20
325.677734
 10
359.447968
 20
396.680023
 10
361.948059
 20
392.349945
 10
355.948547
 20
388.885956
 10
355.418243
 20
389.804413
 42
1.035413
 10
357.494476
 20
386.208405
 10
356.948578
 20
387.153931
 10
362.94809
 20
390.617889
  0
LWPOLYLINE
  5
8A
100
AcDbEntity
  8
LAYER22
370
    18
390
0
  6
DASHED
 62
     1
100
AcDbPolyline
 90
        4
 70
     1
 10
-204.863281
 20
424.412109
 10
-204.863281
 20
430.412109
 10
-180.863281
 20
430.412109
 10
-180.863281
 20
424.412109
  0
LWPOLYLINE
  5
8B
100
AcDbEntity
  8
LAYER22
370
    18
390
0
  6
DASHED
 62
     1
100
AcDbPolyline
 90
        4
 70
     1
 10
-199.363281
 20
424.412109
 10
-186.363281
 20
424.412109
 10
-186.363281
 20
406.412109
 10
-199.363281
 20
406.412109
  0
LWPOLYLINE
  5
8C
100
AcDbEntity
  8
LAYER22
370
    18
390
0
  6
DASHED
 62
     1
100
AcDbPolyline
 90
        4
 70
     1
 10
-204.863281
 20
400.412109
 10
-204.863281
 20
406.412109
 10
-180.863281
 20
406.412109
 10
-180.863281
 20
400.412109
  0
CIRCLE
  5
8D
100
AcDbEntity
  8
LAYER22
390
0
  6
Continuous
 62
     1
100
AcDbCircle
 10
-192.863281
 20
415.412109
 30
0.0
 40
6.0
  0
CIRCLE
  5
8E
100
AcDbEntity
  8
LAYER22
390
0
  6
Continuous
 62
     1
100
AcDbCircle
 10
-192.863281
 20
415.412109
 30
0.0
 40
5.0
  0
LWPOLYLINE
  5
8F
100
AcDbEntity
  8
LAYER22
370
    18
390
0
  6
DASHED
 62
     1
100
AcDbPolyline
 90
        2
 70
     0
 10
-195.363281
 20
411.082031
 10
-190.363281
 20
419.74231
  0
LWPOLYLINE
  5
90
100
AcDbEntity
  8
LAYER22
370
    18
390
0
  6
DASHED
 62
     1
100
AcDbPolyline
 90
        4
 70
     1
 10
57.074219
 20
424.413086
 10
57.074219
 20
430.413086
 10
81.074219
 20
430.413086
 10
81.074219
 20
424.413086
  0
LWPOLYLINE
  5
91
100
AcDbEntity
  8
LAYER22
370
    18
390
0
  6
DASHED
 62
     1
100
AcDbPolyline
 90
        4
 70
     1
 10
62.574219
 20
424.413086
 10
75.574219
 20
424.413086
 10
75.574219
 20
406.413086
 10
62.574219
 20
406.413086
  0
LWPOLYLINE
  5
92
100
AcDbEntity
  8
LAYER22
370
    18
390
0
  6
DASHED
 62
     1
100
AcDbPolyline
 90
        4
 70
     1
 10
57.074219
 20
400.413086
 10
57.074219
 20
406.413086
 10
81.074219
 20
406.413086
 10
81.074219
 20
400.413086
  0
CIRCLE
  5
93
100
AcDbEntity
  8
LAYER22
390
0
  6
Continuous
 62
     1
100
AcDbCircle
 10
69.074219
 20
415.413086
 30
0.0
 40
6.0
  0
CIRCLE
  5
94
100
AcDbEntity
  8
LAYER22
390
0
  6
Continuous
 62
     1
100
AcDbCircle
 10
69.074219
 20
415.413086
 30
0.0
 40
5.0
  0
LWPOLYLINE
  5
95
100
AcDbEntity
  8
LAYER22
370
    18
390
0
  6
DASHED
 62
     1
100
AcDbPolyline
 90
        2
 70
     0
 10
66.574219
 20
411.083008
 10
71.574219
 20
419.743286
  0
LWPOLYLINE
  5
96
100
AcDbEntity
  8
LAYER22
370
    25
390
0
  6
Continuous
 62
     2
100
AcDbPolyline
 90
       10
 70
     0
 10
-202.125656
 20
394.516174
 10
-190.065002
 20
387.553955
 10
-190.845261
 20
386.201904
 42
1.0
 10
-188.784775
 20
389.771271
 10
-189.565018
 20
388.419708
 10
-198.813141
 20
393.758423
 10
-192.570999
 20
396.141327
 10
-192.926483
 20
397.075409
 10
-199.929367
 20
394.403412
 10
-202.125671
 20
395.814026
  0
LWPOLYLINE
  5
97
100
AcDbEntity
  8
LAYER22
370
    25
390
0
  6
Continuous
 62
     2
100
AcDbPolyline
 90
       12
 70
     0
 10
-202.125656
 20
394.516174
 10
-211.074814
 20
389.8974
 10
-224.999619
 20
389.897186
 10
-224.999588
 20
388.336151
 42
-0.999763
 10
-225.000626
 20
392.457245
 10
-224.999634
 20
390.896698
 10
-214.322388
 20
390.897339
 10
-218.537308
 20
396.08136
 10
-217.761429
 20
396.71225
 10
-213.033325
 20
390.897369
 10
-211.229614
 20
390.8974
 10
-202.125671
 20
395.814026
  0
LWPOLYLINE
  5
98
100
AcDbEntity
  8
LAYER22
370
    25
390
0
  6
Continuous
 62
     2
100
AcDbPolyline
 90
       10
 70
     0
 10
-202.125656
 20
436.308044
 10
-190.065002
 20
443.270264
 10
-190.845261
 20
444.622314
 42
-1.0
 10
-188.784775
 20
441.052948
 10
-189.565018
 20
442.40451
 10
-198.813141
 20
437.065796
 10
-192.570999
 20
434.682892
 10
-192.926483
 20
433.74881
 10
-199.929367
 20
436.420807
 10
-202.125671
 20
435.010193
  0
LWPOLYLINE
  5
99
100
AcDbEntity
  8
LAYER22
370
    25
390
0
  6
Continuous
 62
     2
100
AcDbPolyline
 90
       12
 70
     0
 10
-202.125656
 20
436.308044
 10
-211.074814
 20
440.926819
 10
-224.999619
 20
440.927032
 10
-224.999588
 20
442.488068
 42
0.999763
 10
-225.000626
 20
438.366974
 10
-224.999634
 20
439.927521
 10
-214.322388
 20
439.92688
 10
-218.537308
 20
434.742859
 10
-217.761429
 20
434.111969
 10
-213.033325
 20
439.926849
 10
-211.229614
 20
439.926819
 10
-202.125671
 20
435.010193
  0
LWPOLYLINE
  5
9A
100
AcDbEntity
  8
LAYER22
370
    18
390
0
  6
DASHED
 62
     1
100
AcDbPolyline
 90
        4
 70
     1
 10
85.496094
 20
424.413086
 10
85.496094
 20
430.413086
 10
109.496094
 20
430.413086
 10
109.496094
 20
424.413086
  0
LWPOLYLINE
  5
9B
100
AcDbEntity
  8
LAYER22
370
    18
390
0
  6
DASHED
 62
     1
100
AcDbPolyline
 90
        4
 70
     1
 10
90.996094
 20
424.413086
 10
103.996094
 20
424.413086
 10
103.996094
 20
406.413086
 10
90.996094
 20
406.413086
  0
LWPOLYLINE
  5
9C
100
AcDbEntity
  8
LAYER22
370
    18
390
0
  6
DASHED
 62
     1
100
AcDbPolyline
 90
        4
 70
     1
 10
85.496094
 20
400.413086
 10
85.496094
 20
406.413086
 10
109.496094
 20
406.413086
 10
109.496094
 20
400.413086
  0
CIRCLE
  5
9D
100
AcDbEntity
  8
LAYER22
390
0
  6
Continuous
 62
     1
100
AcDbCircle
 10
97.496094
 20
415.413086
 30
0.0
 40
6.0
  0
CIRCLE
  5
9E
100
AcDbEntity
  8
LAYER22
390
0
  6
Continuous
 62
     1
100
AcDbCircle
 10
97.496094
 20
415.413086
 30
0.0
 40
5.0
  0
LWPOLYLINE
  5
9F
100
AcDbEntity
  8
LAYER22
370
    18
390
0
  6
DASHED
 62
     1
100
AcDbPolyline
 90
        2
 70
     0
 10
94.996094
 20
411.083008
 10
99.996094
 20
419.743286
  0
LWPOLYLINE
  5
A0
100
AcDbEntity
  8
LAYER22
370
    25
390
0
  6
Continuous
 62
     2
100
AcDbPolyline
 90
       10
 70
     0
 10
368.695984
 20
394.516174
 10
356.635315
 20
387.553955
 10
357.415558
 20
386.201904
 42
-1.0
 10
355.355072
 20
389.771271
 10
356.135345
 20
388.419708
 10
365.383453
 20
393.758423
 10
359.141296
 20
396.141327
 10
359.496796
 20
397.075409
 10
366.499695
 20
394.403442
 10
368.695984
 20
395.814026
  0
LWPOLYLINE
  5
A1
100
AcDbEntity
  8
LAYER22
370
    25
390
0
  6
Continuous
 62
     2
100
AcDbPolyline
 90
       12
 70
     0
 10
368.695984
 20
394.516174
 10
377.645111
 20
389.8974
 10
391.569916
 20
389.897186
 10
391.569916
 20
388.336151
 42
0.999763
 10
391.570953
 20
392.457245
 10
391.569946
 20
390.896698
 10
380.8927
 20
390.897339
 10
385.107605
 20
396.08136
 10
384.331757
 20
396.71225
 10
379.603638
 20
390.897369
 10
377.799927
 20
390.8974
 10
368.695984
 20
395.814026
  0
LWPOLYLINE
  5
A2
100
AcDbEntity
  8
LAYER22
370
    25
390
0
  6
Continuous
 62
     2
100
AcDbPolyline
 90
       10
 70
     0
 10
368.695984
 20
436.308044
 10
356.635315
 20
443.270264
 10
357.415558
 20
444.622314
 42
1.0
 10
355.355072
 20
441.052948
 10
356.135345
 20
442.40451
 10
365.383453
 20
437.065796
 10
359.141296
 20
434.682892
 10
359.496796
 20
433.74881
 10
366.499695
 20
436.420807
 10
368.695984
 20
435.010193
  0
LWPOLYLINE
  5
A3
100
AcDbEntity
  8
LAYER22
370
    25
390
0
  6
Continuous
 62
     2
100
AcDbPolyline
 90
       12
 70
     0
 10
368.695984
 20
436.308044
 10
377.645111
 20
440.926819
 10
391.569916
 20
440.927032
 10
391.569916
 20
442.488068
 42
-0.999763
 10
391.570953
 20
438.366974
 10
391.569946
 20
439.927521
 10
380.8927
 20
439.92688
 10
385.107605
 20
434.742859
 10
384.331757
 20
434.111969
 10
379.603638
 20
439.926849
 10
377.799927
 20
439.926819
 10
368.695984
 20
435.010193
  0
LWPOLYLINE
  5
A4
100
AcDbEntity
  8
LAYER22
370
    25
390
0
  6
Continuous
 62
     2
100
AcDbPolyline
 90
        4
 70
     1
 10
384.568359
 20
398.912109
 10
384.568359
 20
431.912109
 10
487.568359
 20
431.912109
 10
487.568359
 20
398.912109
  0
LWPOLYLINE
  5
A5
100
AcDbEntity
  8
LAYER22
370
    25
390
0
  6
Continuous
 62
     2
100
AcDbPolyline
 90
       10
 70
     1
 10
384.568359
 20
446.412109
 10
384.568359
 20
441.412109
 10
391.568359
 20
441.412109
 10
391.568359
 20
442.50293
 42
-1.0
 10
391.568359
 20
438.351563
 10
391.568359
 20
439.412109
 10
384.568359
 20
439.412109
 10
384.568359
 20
434.412109
 10
509.568359
 20
434.412109
 10
509.568359
 20
446.412109
  0
LWPOLYLINE
  5
A6
100
AcDbEntity
  8
LAYER22
370
    25
390
0
  6
Continuous
 62
     2
100
AcDbPolyline
 90
       10
 70
     1
 10
384.568359
 20
396.412109
 10
384.568359
 20
391.412109
 10
391.568359
 20
391.412109
 10
391.568359
 20
392.50293
 42
-1.0
 10
391.568359
 20
388.351563
 10
391.568359
 20
389.412109
 10
384.568359
 20
389.412109
 10
384.568359
 20
384.412109
 10
509.568359
 20
384.412109
 10
509.568359
 20
396.412109
  0
LWPOLYLINE
  5
A7
100
AcDbEntity
  8
LAYER22
370
    35
390
0
  6
Continuous
 62
     4
100
AcDbPolyline
 90
        6
 70
     0
 10
509.568359
 20
446.412109
 10
509.568359
 20
428.817383
 10
487.568359
 20
424.537109
 10
487.568359
 20
406.287109
 10
509.568359
 20
402.006836
 10
509.568359
 20
384.412109
  0
LWPOLYLINE
  5
A8
100
AcDbEntity
  8
LAYER22
370
    25
390
0
  6
Continuous
 62
     2
100
AcDbPolyline
 90
        8
 70
     1
 10
510.068359
 20
444.850586
 10
511.964844
 20
444.850586
 42
-0.5275
 10
511.964844
 20
430.318359
 10
510.263672
 20
430.318848
 10
510.263672
 20
432.356445
 10
511.964844
 20
432.356445
 42
0.686995
 10
511.964844
 20
442.8125
 10
510.068359
 20
442.812988
  0
LWPOLYLINE
  5
A9
100
AcDbEntity
  8
LAYER22
370
    25
390
0
  6
Continuous
 62
     2
100
AcDbPolyline
 90
       14
 70
     1
 10
504.160156
 20
446.912109
 10
510.068359
 20
446.912109
 10
510.068359
 20
445.350586
 10
511.964844
 20
445.350586
 10
511.964844
 20
444.850586
 10
510.068359
 20
444.850586
 10
510.068359
 20
442.812988
 10
511.964844
 20
442.812988
 10
511.964844
 20
442.312988
 10
510.068359
 20
442.312988
 10
510.068359
 20
441.391113
 10
509.568359
 20
441.391113
 10
509.568359
 20
446.412109
 10
504.160156
 20
446.412109
  0
LWPOLYLINE
  5
AA
100
AcDbEntity
  8
LAYER22
370
    25
390
0
  6
Continuous
 62
     2
100
AcDbPolyline
 90
       12
 70
     1
 10
510.068359
 20
428.756836
 10
510.068359
 20
429.818359
 10
511.964844
 20
429.818359
 10
511.964844
 20
430.318359
 10
510.068359
 20
430.318359
 10
510.068359
 20
432.355957
 10
511.964844
 20
432.355957
 10
511.964844
 20
432.855957
 10
510.068359
 20
432.855957
 10
510.068359
 20
433.777832
 10
509.568359
 20
433.777832
 10
509.568359
 20
428.756836
  0
LWPOLYLINE
  5
AB
100
AcDbEntity
  8
LAYER22
370
    25
390
0
  6
Continuous
 62
     2
100
AcDbPolyline
 90
        8
 70
     1
 10
510.068359
 20
385.973633
 10
511.964844
 20
385.973633
 42
0.5275
 10
511.964844
 20
400.505859
 10
510.263672
 20
400.505371
 10
510.263672
 20
398.467773
 10
511.964844
 20
398.467773
 42
-0.686995
 10
511.964844
 20
388.011719
 10
510.068359
 20
388.01123
  0
LWPOLYLINE
  5
AC
100
AcDbEntity
  8
LAYER22
370
    25
390
0
  6
Continuous
 62
     2
100
AcDbPolyline
 90
       14
 70
     1
 10
504.160156
 20
383.912109
 10
510.068359
 20
383.912109
 10
510.068359
 20
385.473633
 10
511.964844
 20
385.473633
 10
511.964844
 20
385.973633
 10
510.068359
 20
385.973633
 10
510.068359
 20
388.01123
 10
511.964844
 20
388.01123
 10
511.964844
 20
388.51123
 10
510.068359
 20
388.51123
 10
510.068359
 20
389.433105
 10
509.568359
 20
389.433105
 10
509.568359
 20
384.412109
 10
504.160156
 20
384.412109
  0
LWPOLYLINE
  5
AD
100
AcDbEntity
  8
LAYER22
370
    25
390
0
  6
Continuous
 62
     2
100
AcDbPolyline
 90
       12
 70
     1
 10
510.068359
 20
402.067383
 10
510.068359
 20
401.005859
 10
511.964844
 20
401.005859
 10
511.964844
 20
400.505859
 10
510.068359
 20
400.505859
 10
510.068359
 20
398.468262
 10
511.964844
 20
398.468262
 10
511.964844
 20
397.968262
 10
510.068359
 20
397.968262
 10
510.068359
 20
397.046387
 10
509.568359
 20
397.046387
 10
509.568359
 20
402.067383
  0
LWPOLYLINE
  5
AE
100
AcDbEntity
  8
LAYER22
370
    25
390
0
  6
Continuous
 62
     2
100
AcDbPolyline
 90
        4
 70
     1
 10
-343.0
 20
398.912109
 10
-343.0
 20
431.912109
 10
-218.0
 20
431.912109
 10
-218.0
 20
398.912109
  0
LWPOLYLINE
  5
AF
100
AcDbEntity
  8
LAYER22
370
    25
390
0
  6
Continuous
 62
     2
100
AcDbPolyline
 90
       10
 70
     1
 10
-218.0
 20
446.412109
 10
-218.0
 20
441.412109
 10
-225.0
 20
441.412109
 10
-225.0
 20
442.50293
 42
1.0
 10
-225.0
 20
438.351563
 10
-225.0
 20
439.412109
 10
-218.0
 20
439.412109
 10
-218.0
 20
434.412109
 10
-343.0
 20
434.412109
 10
-343.0
 20
446.412109
  0
LWPOLYLINE
  5
B0
100
AcDbEntity
  8
LAYER22
370
    25
390
0
  6
Continuous
 62
     2
100
AcDbPolyline
 90
       10
 70
     1
 10
-218.0
 20
396.412109
 10
-218.0
 20
391.412109
 10
-225.0
 20
391.412109
 10
-225.0
 20
392.50293
 42
1.0
 10
-225.0
 20
388.351563
 10
-225.0
 20
389.412109
 10
-218.0
 20
389.412109
 10
-218.0
 20
384.412109
 10
-343.0
 20
384.412109
 10
-343.0
 20
396.412109
  0
LWPOLYLINE
  5
B1
100
AcDbEntity
  8
LAYER22
370
    35
390
0
  6
Continuous
 62
     4
100
AcDbPolyline
 90
        8
 70
     0
 10
907.0
 20
384.412109
 10
892.300781
 20
384.412109
 10
892.300781
 20
402.006836
 10
870.10791
 20
406.188477
 10
870.10791
 20
424.635254
 10
892.282227
 20
428.915039
 10
892.282227
 20
446.912109
 10
907.0
 20
446.912109
  0
LWPOLYLINE
  5
B2
100
AcDbEntity
  8
LAYER22
370
    18
390
0
  6
DASHED
 62
     1
100
AcDbPolyline
 90
        4
 70
     1
 10
-218.0
 20
431.912109
 10
907.0
 20
431.912109
 10
907.0
 20
398.912109
 10
-218.0
 20
398.912109
  0
LWPOLYLINE
  5
B3
100
AcDbEntity
  8
LAYER22
370
    13
390
0
  6
DASHDOT
 62
     5
100
AcDbPolyline
 90
        2
 70
     0
 10
-343.0
 20
415.412109
 10
907.0
 20
415.412109
  0
ENDSEC
  0
SECTION
  2
OBJECTS
  0
DICTIONARY
  5
19
100
AcDbDictionary
280
     0
281
     1
  3
ACAD_GROUP
350
1A
  3
ACAD_MLINESTYLE
350
1B
  3
ACAD_LAYOUT
350
1E
  3
ACAD_PLOTSETTINGS
350
22
  3
ACAD_PLOTSTYLENAME
350
1F
  3
ACAD_WIPEOUT_VARS
350
23
  0
DICTIONARY
  5
1A
102
{ACAD_REACTORS
330
19
102
}
100
AcDbDictionary
280
     0
281
     1
  0
DICTIONARY
  5
1B
102
{ACAD_REACTORS
330
19
102
}
100
AcDbDictionary
280
     0
281
     1
  3
Standard
350
1C
  0
MLINESTYLE
  5
1C
102
{ACAD_REACTORS
330
1B
102
}
100
AcDbMlineStyle
  2
Standard
 70
     0
  3

 62
     0
 51
90.0
 52
90.0
 71
     2
 49
0.5
 62
   256
  6
ByLayer
 49
-0.5
 62
   256
  6
ByLayer
  0
ACDBDICTIONARYWDFLT
  5
1F
102
{ACAD_REACTORS
330
19
102
}
100
AcDbDictionary
281
     1
  3
Normal
350
1D
100
AcDbDictionaryWithDefault
340
1D
  0
ACDBPLACEHOLDER
  5
1D
102
{ACAD_REACTORS
330
1F
102
}
  0
LAYOUT
  5
20
102
{ACAD_REACTORS
330
1E
102
}
100
AcDbPlotSettings
  1

  2

  4

  6

 40
0.0
 41
0.0
 42
0.0
 43
0.0
 44
0.0
 45
0.0
 46
0.0
 47
0.0
 48
0.0
 49
0.0
140
0.0
141
0.0
142
1.0
143
1.0
 70
  1024
 72
     0
 73
     0
 74
     0
  7

 75
     0
147
1.0
148
0.0
149
0.0
100
AcDbLayout
  1
Model
 70
     0
 71
     0
 10
0.0
 20
0.0
 11
0.0
 21
0.0
 12
0.0
 22
0.0
 32
0.0
 14
0.0
 24
0.0
 34
0.0
 15
0.0
 25
0.0
 35
0.0
146
0.0
 13
0.0
 23
0.0
 33
0.0
 16
0.0
 26
0.0
 36
0.0
 17
0.0
 27
0.0
 37
0.0
 76
     0
330
A
331
0
345
0
346
0
  0
LAYOUT
  5
21
102
{ACAD_REACTORS
330
1E
102
}
100
AcDbPlotSettings
  1

  2

  4

  6

 40
0.0
 41
0.0
 42
0.0
 43
0.0
 44
0.0
 45
0.0
 46
0.0
 47
0.0
 48
0.0
 49
0.0
140
0.0
141
0.0
142
1.0
143
1.0
 70
     0
 72
     0
 73
     0
 74
     0
  7

 75
     0
147
1.0
148
0.0
149
0.0
100
AcDbLayout
  1
Layout1
 70
     0
 71
     0
 10
0.0
 20
0.0
 11
0.0
 21
0.0
 12
0.0
 22
0.0
 32
0.0
 14
0.0
 24
0.0
 34
0.0
 15
0.0
 25
0.0
 35
0.0
146
0.0
 13
0.0
 23
0.0
 33
0.0
 16
0.0
 26
0.0
 36
0.0
 17
0.0
 27
0.0
 37
0.0
 76
     0
330
B
331
0
345
0
346
0
  0
DICTIONARY
  5
1E
102
{ACAD_REACTORS
330
19
102
}
100
AcDbDictionary
280
     0
281
     1
  3
Layout1
350
21
  3
Model
350
20
  0
DICTIONARY
  5
22
102
{ACAD_REACTORS
330
19
102
}
100
AcDbDictionary
280
     0
281
     1
  0
WIPEOUTVARIABLES
  5
23
100
AcDbWipeoutVariables
 70
     1
  0
ENDSEC
  0
EOF
