  0
SECTION
  2
HEADER
  9
$ACADVER
  1
AC1015
  9
$ACADMAINTVER
 70
     6
  9
$DWGCODEPAGE
  3
ANSI_1252
  9
$INSBASE
 10
0.0
 20
0.0
 30
0.0
  9
$EXTMIN
 10
1.000000E+20
 20
1.000000E+20
 30
1.000000E+20
  9
$EXTMAX
 10
-1.000000E+20
 20
-1.000000E+20
 30
-1.000000E+20
  9
$LIMMIN
 10
0.0
 20
0.0
  9
$LIMMAX
 10
0.0
 20
0.0
  9
$ORTHOMODE
 70
     0
  9
$REGENMODE
 70
     1
  9
$FILLMODE
 70
     1
  9
$QTEXTMODE
 70
     0
  9
$MIRRTEXT
 70
     1
  9
$LTSCALE
 40
50.0
  9
$ATTMODE
 70
     1
  9
$TEXTSIZE
 40
0.2
  9
$TRACEWID
 40
0.05
  9
$TEXTSTYLE
  7
Standard
  9
$CLAYER
  8
0
  9
$CELTYPE
  6
Continuous
  9
$CECOLOR
 62
   256
  9
$CELTSCALE
 40
1.0
  9
$DISPSILH
 70
     0
  9
$DIMSCALE
 40
1.0
  9
$DIMASZ
 40
0.18
  9
$DIMEXO
 40
0.0625
  9
$DIMDLI
 40
0.38
  9
$DIMRND
 40
0.0
  9
$DIMDLE
 40
0.0
  9
$DIMEXE
 40
0.18
  9
$DIMTP
 40
0.0
  9
$DIMTM
 40
0.0
  9
$DIMTXT
 40
0.18
  9
$DIMCEN
 40
0.09
  9
$DIMTSZ
 40
0.0
  9
$DIMTOL
 70
     0
  9
$DIMLIM
 70
     0
  9
$DIMTIH
 70
     1
  9
$DIMTOH
 70
     1
  9
$DIMSE1
 70
     0
  9
$DIMSE2
 70
     0
  9
$DIMTAD
 70
     0
  9
$DIMZIN
 70
     0
  9
$DIMBLK
  1

  9
$DIMASO
 70
     1
  9
$DIMSHO
 70
     1
  9
$DIMPOST
  1

  9
$DIMAPOST
  1

  9
$DIMALT
 70
     0
  9
$DIMALTD
 70
     2
  9
$DIMALTF
 40
25.4
  9
$DIMLFAC
 40
1.0
  9
$DIMTOFL
 70
     0
  9
$DIMTVP
 40
0.0
  9
$DIMTIX
 70
     0
  9
$DIMSOXD
 70
     0
  9
$DIMSAH
 70
     0
  9
$DIMBLK1
  1

  9
$DIMBLK2
  1

  9
$DIMSTYLE
  2
Standard
  9
$DIMCLRD
 70
     0
  9
$DIMCLRE
 70
     0
  9
$DIMCLRT
 70
     0
  9
$DIMTFAC
 40
1.0
  9
$DIMGAP
 40
0.09
  9
$DIMJUST
 70
     0
  9
$DIMSD1
 70
     0
  9
$DIMSD2
 70
     0
  9
$DIMTOLJ
 70
     1
  9
$DIMTZIN
 70
     0
  9
$DIMALTZ
 70
     0
  9
$DIMALTTZ
 70
     0
  9
$DIMUPT
 70
     0
  9
$DIMDEC
 70
     4
  9
$DIMTDEC
 70
     4
  9
$DIMALTU
 70
     2
  9
$DIMALTTD
 70
     2
  9
$DIMTXSTY
  7
Standard
  9
$DIMAUNIT
 70
     0
  9
$DIMADEC
 70
     0
  9
$DIMALTRND
 40
0.0
  9
$DIMAZIN
 70
     0
  9
$DIMDSEP
 70
     0
  9
$DIMATFIT
 70
     3
  9
$DIMFRAC
 70
     0
  9
$DIMLDRBLK
  1

  9
$DIMLUNIT
 70
     2
  9
$DIMLWD
 70
     0
  9
$DIMLWE
 70
     0
  9
$DIMTMOVE
 70
     0
  9
$LUNITS
 70
     2
  9
$LUPREC
 70
     4
  9
$SKETCHINC
 40
0.1
  9
$FILLETRAD
 40
0.0
  9
$AUNITS
 70
     0
  9
$AUPREC
 70
     0
  9
$MENU
  1
acad
  9
$ELEVATION
 40
0.0
  9
$PELEVATION
 40
0.0
  9
$THICKNESS
 40
0.0
  9
$LIMCHECK
 70
     0
  9
$CHAMFERA
 40
0.0
  9
$CHAMFERB
 40
0.0
  9
$CHAMFERC
 40
0.0
  9
$CHAMFERD
 40
0.0
  9
$SKPOLY
 70
     0
  9
$TDCREATE
 40
0.000000000
  9
$TDUCREATE
 40
0.000000000
  9
$TDUPDATE
 40
0.000000000
  9
$TDUUPDATE
 40
0.000000000
  9
$TDINDWG
 40
0.0000000000
  9
$TDUSRTIMER
 40
0.0000000000
  9
$USRTIMER
 70
     1
  9
$ANGBASE
 50
0.0
  9
$ANGDIR
 70
     0
  9
$PDMODE
 70
     0
  9
$PDSIZE
 40
0.0
  9
$PLINEWID
 40
0.0
  9
$SPLFRAME
 70
     0
  9
$SPLINETYPE
 70
     6
  9
$SPLINESEGS
 70
   120
  9
$HANDSEED
  5
B4
  9
$SURFTAB1
 70
     6
  9
$SURFTAB2
 70
     6
  9
$SURFTYPE
 70
     6
  9
$SURFU
 70
     6
  9
$SURFV
 70
     6
  9
$UCSBASE
  2

  9
$UCSNAME
  2

  9
$UCSORG
 10
0.0
 20
0.0
 30
0.0
  9
$UCSXDIR
 10
1.0
 20
0.0
 30
0.0
  9
$UCSYDIR
 10
0.0
 20
1.0
 30
0.0
  9
$UCSORTHOREF
  2

  9
$UCSORTHOVIEW
 70
     0
  9
$UCSORGTOP
 10
0.0
 20
0.0
 30
0.0
  9
$UCSORGBOTTOM
 10
0.0
 20
0.0
 30
0.0
  9
$UCSORGLEFT
 10
0.0
 20
0.0
 30
0.0
  9
$UCSORGRIGHT
 10
0.0
 20
0.0
 30
0.0
  9
$UCSORGFRONT
 10
0.0
 20
0.0
 30
0.0
  9
$UCSORGBACK
 10
0.0
 20
0.0
 30
0.0
  9
$PUCSBASE
  2

  9
$PUCSNAME
  2

  9
$PUCSORG
 10
0.0
 20
0.0
 30
0.0
  9
$PUCSXDIR
 10
1.0
 20
0.0
 30
0.0
  9
$PUCSYDIR
 10
0.0
 20
1.0
 30
0.0
  9
$PUCSORTHOREF
  2

  9
$PUCSORTHOVIEW
 70
     0
  9
$PUCSORGTOP
 10
0.0
 20
0.0
 30
0.0
  9
$PUCSORGBOTTOM
 10
0.0
 20
0.0
 30
0.0
  9
$PUCSORGLEFT
 10
0.0
 20
0.0
 30
0.0
  9
$PUCSORGRIGHT
 10
0.0
 20
0.0
 30
0.0
  9
$PUCSORGFRONT
 10
0.0
 20
0.0
 30
0.0
  9
$PUCSORGBACK
 10
0.0
 20
0.0
 30
0.0
  9
$USERI1
 70
 12345
  9
$USERI2
 70
     0
  9
$USERI3
 70
     0
  9
$USERI4
 70
     0
  9
$USERI5
 70
     0
  9
$USERR1
 40
0.0
  9
$USERR2
 40
0.0
  9
$USERR3
 40
0.0
  9
$USERR4
 40
0.0
  9
$USERR5
 40
0.0
  9
$WORLDVIEW
 70
     1
  9
$SHADEDGE
 70
     3
  9
$SHADEDIF
 70
    70
  9
$TILEMODE
 70
     1
  9
$MAXACTVP
 70
    16
  9
$PINSBASE
 10
0.0
 20
0.0
 30
0.0
  9
$PLIMCHECK
 70
     0
  9
$PEXTMIN
 10
1.000000E+20
 20
1.000000E+20
 30
1.000000E+20
  9
$PEXTMAX
 10
-1.000000E+20
 20
-1.000000E+20
 30
-1.000000E+20
  9
$PLIMMIN
 10
0.0
 20
0.0
  9
$PLIMMAX
 10
12.0
 20
9.0
  9
$UNITMODE
 70
     0
  9
$VISRETAIN
 70
     0
  9
$PLINEGEN
 70
     1
  9
$PSLTSCALE
 70
     0
  9
$TREEDEPTH
 70
  3020
  9
$CMLSTYLE
  2
Standard
  9
$CMLJUST
 70
     0
  9
$CMLSCALE
 40
1.0
  9
$PROXYGRAPHICS
 70
     0
  9
$MEASUREMENT
 70
     0
  9
$CELWEIGHT
370
     0
  9
$ENDCAPS
280
     0
  9
$JOINSTYLE
280
     0
  9
$LWDISPLAY
290
     0
  9
$INSUNITS
 70
     0
  9
$HYPERLINKBASE
  1

  9
$STYLESHEET
  1

  9
$XEDIT
290
     1
  9
$CEPSNTYPE
380
     0
  9
$PSTYLEMODE
290
     1
  9
$FINGERPRINTGUID
  2

  9
$VERSIONGUID
  2

  9
$EXTNAMES
290
     1
  9
$PSVPSCALE
 40
0.0
  0
ENDSEC
  0
SECTION
  2
CLASSES
  0
CLASS
  1
LWPOLYLINE
  2
AcDbPolyline
  3
AutoCAD 2000
 90
        0
280
     0
281
     1
  0
CLASS
  1
IMAGE
  2
AcDbRasterImage
  3
ISM
 90
      127
280
     0
281
     1
  0
CLASS
  1
OLE2FRAME
  2
AcDbOle2Frame
  3
AutoCAD 2000
 90
        0
280
     0
281
     1
  0
CLASS
  1
HATCH
  2
AcDbHatch
  3
AutoCAD 2000
 90
        0
280
     0
281
     1
  0
CLASS
  1
DICTIONARYVAR
  2
AcDbDictionaryVar
  3
AutoCAD 2000
 90
        0
280
     0
281
     0
  0
CLASS
  1
RASTERVARIABLES
  2
AcDbRasterVariables
  3
ISM
 90
        0
280
     0
281
     0
  0
CLASS
  1
IMAGEDEF
  2
AcDbRasterImageDef
  3
ISM
 90
        0
280
     0
281
     0
  0
CLASS
  1
IMAGEDEF_REACTOR
  2
AcDbRasterImageDefReactor
  3
ISM
 90
        1
280
     0
281
     0
  0
CLASS
  1
IDBUFFER
  2
AcDbIdBuffer
  3
AutoCAD 2000
 90
        0
280
     0
281
     0
  0
CLASS
  1
SPATIAL_FILTER
  2
AcDbSpatialFilter
  3
AutoCAD 2000
 90
        0
280
     0
281
     0
  0
CLASS
  1
XRECORD
  2
AcDbXrecord
  3
AutoCAD 2000
 90
        0
280
     0
281
     0
  0
CLASS
  1
SORTENTSTABLE
  2
AcDbSortentsTable
  3
AutoCAD 2000
 90
        0
280
     0
281
     0
  0
CLASS
  1
LAYER_INDEX
  2
AcDbLayerIndex
  3
AutoCAD 2000
 90
        0
280
     0
281
     0
  0
CLASS
  1
SPATIAL_INDEX
  2
AcDbSpatialIndex
  3
AutoCAD 2000
 90
        0
280
     0
281
     0
  0
CLASS
  1
OBJECT_PTR
  2
CAseDLPNTableRecord
  3
"ASE-LPNTableRecord"
 90
        1
280
     0
281
     0
  0
CLASS
  1
LAYOUT
  2
AcDbLayout
  3
AutoCAD 2000
 90
        0
280
     0
281
     0
  0
CLASS
  1
PLOTSETTINGS
  2
AcDbPlotSettings
  3
AutoCAD 2000
 90
        0
280
     0
281
     0
  0
CLASS
  1
ACDBDICTIONARYWDFLT
  2
AcDbDictionaryWithDefault
  3
AutoCAD 2000
 90
        0
280
     0
281
     0
  0
CLASS
  1
ACDBPLACEHOLDER
  2
AcDbPlaceHolder
  3
AutoCAD 2000
 90
        0
280
     0
281
     0
  0
CLASS
  1
VBA_PROJECT
  2
AcDbVbaProject
  3
acadvba
 90
        0
280
     0
281
     0
  0
CLASS
  1
WIPEOUT
  2
AcDbWipeout
  3
WipeOut|AutoCAD Express Tool|expresstools@autodesk.com
 90
      127
280
     0
281
     1
  0
CLASS
  1
WIPEOUTVARIABLES
  2
AcDbWipeoutVariables
  3
WipeOut|AutoCAD Express Tool|expresstools@autodesk.com
 90
        0
280
     0
281
     0
  0
CLASS
  1
RTEXT
  2
RText
  3
RText|AutoCAD Express Tool|expresstools@autodesk.com
 90
        0
280
     0
281
     1
  0
CLASS
  1
ARCALIGNEDTEXT
  2
AcDbArcAlignedText
  3
ATEXT|AutoCAD Express Tool|expresstools@autodesk.com
 90
        0
280
     0
281
     1
  0
ENDSEC
  0
SECTION
  2
TABLES
  0
TABLE
  2
VPORT
  5
7
100
AcDbSymbolTable
 70
     1
  0
VPORT
  5
15
100
AcDbSymbolTableRecord
100
AcDbViewportTableRecord
  2
*ACTIVE
 70
     0
 10
0.0
 20
0.0
 11
1.0
 21
1.0
 12
212.0
 22
-582.0
 13
0.0
 23
0.0
 14
1.0
 24
1.0
 15
0.0
 25
0.0
 16
0.0
 26
0.0
 36
1.0
 17
0.0
 27
0.0
 37
0.0
 40
2904.0
 41
0.688564
 42
50.0
 43
0.0
 44
0.0
 50
0.0
 51
0.0
 71
     0
 72
   100
 73
     1
 74
     1
 75
     0
 76
     0
 77
     0
 78
     0
281
     0
 65
     0
110
0.0
120
0.0
130
0.0
111
1.0
121
0.0
131
0.0
112
0.0
122
1.0
132
0.0
345
0
346
0
 79
     0
146
0.0
  0
ENDTAB
  0
TABLE
  2
LTYPE
  5
4
100
AcDbSymbolTable
 70
     7
  0
LTYPE
  5
11
100
AcDbSymbolTableRecord
100
AcDbLinetypeTableRecord
  2
ByBlock
 70
    64
  3

 72
    65
 73
     0
 40
0.0
  0
LTYPE
  5
12
100
AcDbSymbolTableRecord
100
AcDbLinetypeTableRecord
  2
ByLayer
 70
    64
  3

 72
    65
 73
     0
 40
0.0
  0
LTYPE
  5
13
100
AcDbSymbolTableRecord
100
AcDbLinetypeTableRecord
  2
Continuous
 70
    64
  3
Solid line
 72
    65
 73
     0
 40
0.0
  0
LTYPE
  5
24
100
AcDbSymbolTableRecord
100
AcDbLinetypeTableRecord
  2
DASHED
 70
    64
  3
Dashed __ __ __
 72
    65
 73
     2
 40
0.75
 49
0.5
 74
     0
 49
-0.25
 74
     0
  0
LTYPE
  5
25
100
AcDbSymbolTableRecord
100
AcDbLinetypeTableRecord
  2
DOT
 70
    64
  3
Dot . . . .
 72
    65
 73
     2
 40
0.25
 49
0.0
 74
     0
 49
-0.25
 74
     0
  0
LTYPE
  5
26
100
AcDbSymbolTableRecord
100
AcDbLinetypeTableRecord
  2
DASHDOT
 70
    64
  3
Dash dot __ . __ .
 72
    65
 73
     4
 40
1.0
 49
0.5
 74
     0
 49
-0.25
 74
     0
 49
0.0
 74
     0
 49
-0.25
 74
     0
  0
LTYPE
  5
27
100
AcDbSymbolTableRecord
100
AcDbLinetypeTableRecord
  2
DIVIDE
 70
    64
  3
Divide __ . . __ . .
 72
    65
 73
     6
 40
1.25
 49
0.5
 74
     0
 49
-0.25
 74
     0
 49
0.0
 74
     0
 49
-0.25
 74
     0
 49
0.0
 74
     0
 49
-0.25
 74
     0
  0
ENDTAB
  0
TABLE
  2
LAYER
  5
2
100
AcDbSymbolTable
 70
     3
  0
LAYER
  5
14
100
AcDbSymbolTableRecord
100
AcDbLayerTableRecord
  2
0
 70
     0
 62
     7
  6
Continuous
290
     1
370
    -3
390
1D
  0
LAYER
  5
29
100
AcDbSymbolTableRecord
100
AcDbLayerTableRecord
  2
LAYER01
 70
     0
 62
     7
  6
Continuous
290
     1
370
    -3
390
1D
  0
LAYER
  5
37
100
AcDbSymbolTableRecord
100
AcDbLayerTableRecord
  2
LAYER22
 70
     0
 62
     7
  6
Continuous
290
     1
370
    -3
390
1D
  0
ENDTAB
  0
TABLE
  2
STYLE
  5
3
100
AcDbSymbolTable
 70
     1
  0
STYLE
  5
17
100
AcDbSymbolTableRecord
100
AcDbTextStyleTableRecord
  2
Standard
 70
     0
 40
0.0
 41
1.0
 50
0.0
 71
     0
 42
0.0
  3
txt
  4

  0
ENDTAB
  0
TABLE
  2
VIEW
  5
5
100
AcDbSymbolTable
 70
     0
  0
ENDTAB
  0
TABLE
  2
UCS
  5
6
100
AcDbSymbolTable
 70
     0
  0
ENDTAB
  0
TABLE
  2
APPID
  5
8
100
AcDbSymbolTable
 70
     1
  0
APPID
  5
16
100
AcDbSymbolTableRecord
100
AcDbRegAppTableRecord
  2
ACAD
 70
     0
  0
ENDTAB
  0
TABLE
  2
DIMSTYLE
  5
9
100
AcDbSymbolTable
 70
     1
100
AcDbDimStyleTable
 71
     0
  0
DIMSTYLE
105
18
100
AcDbSymbolTableRecord
100
AcDbDimStyleTableRecord
  2
Standard
 70
     0
  3

  4

 40
1.0
 41
0.18
 42
0.0625
 43
0.38
 44
0.18
 45
0.0
 46
0.0
 47
0.0
 48
0.0
 71
     0
 72
     0
 73
     1
 74
     1
 75
     0
 76
     0
 77
     0
 78
     0
 79
     0
140
0.18
141
0.09
142
0.0
143
25.4
144
1.0
145
0.0
146
1.0
147
0.09
148
0.0
170
     0
171
     2
172
     0
173
     0
174
     0
175
     0
176
     0
177
     0
178
     0
179
     0
271
     4
272
     4
273
     2
274
     2
275
     0
276
     0
277
     2
278
    46
279
     0
280
     0
281
     0
282
     0
283
     1
284
     0
285
     0
286
     0
288
     0
289
     3
340
17
341
0
342
0
343
0
344
0
371
    -2
372
    -2
  0
ENDTAB
  0
TABLE
  2
BLOCK_RECORD
  5
1
100
AcDbSymbolTable
 70
     0
  0
BLOCK_RECORD
  5
A
100
AcDbSymbolTableRecord
100
AcDbBlockTableRecord
  2
*MODEL_SPACE
340
20
  0
BLOCK_RECORD
  5
B
100
AcDbSymbolTableRecord
100
AcDbBlockTableRecord
  2
*PAPER_SPACE
340
21
  0
ENDTAB
  0
ENDSEC
  0
SECTION
  2
BLOCKS
  0
BLOCK
  5
D
100
AcDbEntity
  8
0
390
0
100
AcDbBlockBegin
  2
*MODEL_SPACE
 70
     0
 10
0.0
 20
0.0
 30
0.0
  3
*MODEL_SPACE
  1

  0
ENDBLK
  5
E
100
AcDbEntity
  8
0
390
0
100
AcDbBlockEnd
  0
BLOCK
  5
F
100
AcDbEntity
 67
     1
  8
0
390
0
100
AcDbBlockBegin
  2
*PAPER_SPACE
 70
     0
 10
0.0
 20
0.0
 30
0.0
  3
*PAPER_SPACE
  1

  0
ENDBLK
  5
10
100
AcDbEntity
 67
     1
  8
0
390
0
100
AcDbBlockEnd
  0
ENDSEC
  0
SECTION
  2
ENTITIES
  0
MTEXT
  5
28
100
AcDbEntity
  8
LAYER01
390
0
 62
     2
100
AcDbMText
 10
-1201.0
 20
807.0
 30
0.0
 40
11.25
 41
0.0
 71
     7
 72
     1
  1
duplo 122 EN 122S
 11
1.0
 21
0.0
 31
0.0
 73
     1
 44
1.333333
  0
LWPOLYLINE
  5
2A
100
AcDbEntity
  8
LAYER01
370
    13
390
0
  6
Continuous
 62
     5
100
AcDbPolyline
 90
        2
 70
     0
 10
-1138.0
 20
401.0
 10
-490.0
 20
401.0
  0
LWPOLYLINE
  5
2B
100
AcDbEntity
  8
LAYER01
370
    18
390
0
  6
Continuous
 62
     1
100
AcDbPolyline
 90
        2
 70
     0
 10
-1138.0
 20
403.499969
 10
-1138.0
 20
393.499969
  0
LWPOLYLINE
  5
2C
100
AcDbEntity
  8
LAYER01
370
    18
390
0
  6
Continuous
 62
     1
100
AcDbPolyline
 90
        2
 70
     0
 10
-490.000031
 20
403.499969
 10
-490.000031
 20
393.499969
  0
MTEXT
  5
2D
100
AcDbEntity
  8
LAYER01
390
0
 62
     2
100
AcDbMText
 10
-814.0
 20
405.166656
 30
0.0
 40
11.25
 41
0.0
 71
     8
 72
     1
  1
648
 11
1.0
 21
0.0
 31
0.0
 73
     1
 44
1.333333
  0
LWPOLYLINE
  5
2E
100
AcDbEntity
  8
LAYER01
370
    13
390
0
  6
Continuous
 62
     5
100
AcDbPolyline
 90
        2
 70
     0
 10
-1123.0
 20
491.0
 10
-829.0
 20
491.0
  0
LWPOLYLINE
  5
2F
100
AcDbEntity
  8
LAYER01
370
    18
390
0
  6
Continuous
 62
     1
100
AcDbPolyline
 90
        2
 70
     0
 10
-1123.0
 20
493.499969
 10
-1123.0
 20
483.499969
  0
LWPOLYLINE
  5
30
100
AcDbEntity
  8
LAYER01
370
    18
390
0
  6
Continuous
 62
     1
100
AcDbPolyline
 90
        2
 70
     0
 10
-829.000061
 20
493.499969
 10
-829.000061
 20
483.499969
  0
MTEXT
  5
31
100
AcDbEntity
  8
LAYER01
390
0
 62
     2
100
AcDbMText
 10
-976.0
 20
495.166656
 30
0.0
 40
11.25
 41
0.0
 71
     8
 72
     1
  1
294
 11
1.0
 21
0.0
 31
0.0
 73
     1
 44
1.333333
  0
LWPOLYLINE
  5
32
100
AcDbEntity
  8
LAYER01
370
    13
390
0
  6
Continuous
 62
     5
100
AcDbPolyline
 90
        2
 70
     0
 10
-799.0
 20
491.0
 10
-505.0
 20
491.0
  0
LWPOLYLINE
  5
33
100
AcDbEntity
  8
LAYER01
370
    18
390
0
  6
Continuous
 62
     1
100
AcDbPolyline
 90
        2
 70
     0
 10
-799.000061
 20
493.499969
 10
-799.000061
 20
483.499969
  0
LWPOLYLINE
  5
34
100
AcDbEntity
  8
LAYER01
370
    18
390
0
  6
Continuous
 62
     1
100
AcDbPolyline
 90
        2
 70
     0
 10
-505.000031
 20
493.499969
 10
-505.000031
 20
483.499969
  0
MTEXT
  5
35
100
AcDbEntity
  8
LAYER01
390
0
 62
     2
100
AcDbMText
 10
-652.0
 20
495.166656
 30
0.0
 40
11.25
 41
0.0
 71
     8
 72
     1
  1
294
 11
1.0
 21
0.0
 31
0.0
 73
     1
 44
1.333333
  0
LWPOLYLINE
  5
36
100
AcDbEntity
  8
LAYER22
370
    18
390
0
  6
Continuous
 62
     1
100
AcDbPolyline
 90
        4
 70
     1
 10
-1123.0
 20
-1955.0
 10
-1123.0
 20
673.0
 10
-829.0
 20
673.0
 10
-829.0
 20
-1955.0
  0
LWPOLYLINE
  5
38
100
AcDbEntity
  8
LAYER22
370
    18
390
0
  6
Continuous
 62
     1
100
AcDbPolyline
 90
        4
 70
     1
 10
-829.0
 20
-1955.0
 10
-829.0
 20
673.0
 10
-799.0
 20
673.0
 10
-799.0
 20
-1955.0
  0
LWPOLYLINE
  5
39
100
AcDbEntity
  8
LAYER22
370
    25
390
0
  6
Continuous
 62
     2
100
AcDbPolyline
 90
       23
 70
     0
 10
-814.0
 20
725.0
 10
-804.662109
 20
725.0
 10
-804.662109
 20
723.384766
 10
-795.072266
 20
723.384766
 42
-0.414214
 10
-793.457031
 20
721.769531
 10
-793.457031
 20
699.056641
 10
-792.722656
 20
694.894531
 42
-0.466313
 10
-794.314453
 20
692.999146
 10
-805.015625
 20
693.0
 42
-0.469821
 10
-806.602966
 20
694.91394
 10
-805.824219
 20
699.056641
 10
-804.814453
 20
699.056641
 10
-804.814453
 20
695.726563
 10
-804.107422
 20
695.019531
 10
-798.554688
 20
695.019531
 10
-797.847656
 20
695.726563
 10
-797.847656
 20
699.056641
 10
-795.476563
 20
699.056641
 10
-795.476563
 20
718.337891
 42
0.414214
 10
-798.503906
 20
721.365234
 10
-807.589844
 20
721.365234
 10
-807.589844
 20
722.878906
 10
-814.0
 20
722.878906
  0
LWPOLYLINE
  5
3A
100
AcDbEntity
  8
LAYER22
370
    25
390
0
  6
Continuous
 62
     2
100
AcDbPolyline
 90
       23
 70
     0
 10
-814.0
 20
725.0
 10
-823.337891
 20
725.0
 10
-823.337891
 20
723.384766
 10
-832.927734
 20
723.384766
 42
0.414214
 10
-834.542969
 20
721.769531
 10
-834.542969
 20
699.056641
 10
-835.277344
 20
694.894531
 42
0.466313
 10
-833.685547
 20
692.999146
 10
-822.984375
 20
693.0
 42
0.469821
 10
-821.397034
 20
694.91394
 10
-822.175781
 20
699.056641
 10
-823.185547
 20
699.056641
 10
-823.185547
 20
695.726563
 10
-823.892578
 20
695.019531
 10
-829.445313
 20
695.019531
 10
-830.152344
 20
695.726563
 10
-830.152344
 20
699.056641
 10
-832.523438
 20
699.056641
 10
-832.523438
 20
718.337891
 42
-0.414214
 10
-829.496094
 20
721.365234
 10
-820.410156
 20
721.365234
 10
-820.410156
 20
722.878906
 10
-814.0
 20
722.878906
  0
LWPOLYLINE
  5
3B
100
AcDbEntity
  8
LAYER22
370
    18
390
0
  6
Continuous
 62
     1
100
AcDbPolyline
 90
        6
 70
     1
 10
-809.000977
 20
722.878906
 10
-818.999023
 20
722.878906
 10
-816.041992
 20
725.878906
 10
-816.041992
 20
735.878906
 10
-812.041992
 20
735.878906
 10
-812.041992
 20
725.878906
  0
LWPOLYLINE
  5
3C
100
AcDbEntity
  8
LAYER22
370
    18
390
0
  6
Continuous
 62
     1
100
AcDbPolyline
 90
        2
 70
     0
 10
-816.041992
 20
725.878906
 10
-812.041992
 20
725.878906
  0
LWPOLYLINE
  5
3D
100
AcDbEntity
  8
LAYER22
370
    18
390
0
  6
Continuous
 62
     1
100
AcDbPolyline
 90
       22
 70
     0
 10
-816.041992
 20
735.878906
 10
-812.191895
 20
738.128906
 10
-815.749268
 20
740.269531
 10
-812.487305
 20
742.559326
 10
-815.433105
 20
745.01123
 10
-812.803955
 20
747.310059
 10
-815.125
 20
749.633789
 10
-813.107178
 20
751.859375
 10
-814.840088
 20
753.904053
 10
-813.365479
 20
755.731201
 10
-814.610107
 20
757.35498
 10
-813.548096
 20
758.4729
 10
-814.463379
 20
759.556396
 10
-813.690186
 20
760.601074
 10
-814.329346
 20
761.569092
 10
-813.803955
 20
762.310791
 10
-814.220947
 20
763.191406
 10
-813.899414
 20
763.742432
 10
-814.159424
 20
764.115479
 10
-813.961182
 20
764.666504
 10
-814.0979
 20
765.038086
 10
-814.0
 20
765.869141
  0
LWPOLYLINE
  5
3E
100
AcDbEntity
  8
LAYER22
370
    18
390
0
  6
Continuous
 62
     1
100
AcDbPolyline
 90
        4
 70
     1
 10
-829.697266
 20
719.246094
 10
-823.640625
 20
719.246094
 10
-823.640625
 20
695.019531
 10
-829.697266
 20
695.019531
  0
LWPOLYLINE
  5
3F
100
AcDbEntity
  8
LAYER22
370
    18
390
0
  6
Continuous
 62
     1
100
AcDbPolyline
 90
        4
 70
     1
 10
-823.640625
 20
713.693359
 10
-804.359375
 20
713.693359
 10
-804.359375
 20
700.570313
 10
-823.640625
 20
700.570313
  0
LWPOLYLINE
  5
40
100
AcDbEntity
  8
LAYER22
370
    18
390
0
  6
Continuous
 62
     1
100
AcDbPolyline
 90
        4
 70
     1
 10
-804.359375
 20
719.246094
 10
-798.302734
 20
719.246094
 10
-798.302734
 20
695.019531
 10
-804.359375
 20
695.019531
  0
LWPOLYLINE
  5
41
100
AcDbEntity
  8
LAYER22
370
    18
390
0
  6
Continuous
 62
     1
100
AcDbPolyline
 90
        4
 70
     1
 10
-808.953125
 20
700.570313
 10
-808.953125
 20
673.0
 10
-819.046875
 20
673.0
 10
-819.046875
 20
700.570313
  0
LWPOLYLINE
  5
42
100
AcDbEntity
  8
LAYER22
370
    25
390
0
  6
Continuous
 62
     2
100
AcDbPolyline
 90
        4
 70
     1
 10
-792.0
 20
693.0
 10
-792.0
 20
725.0
 10
-589.0
 20
725.0
 10
-589.0
 20
693.0
  0
LWPOLYLINE
  5
43
100
AcDbEntity
  8
LAYER22
370
    25
390
0
  6
Continuous
 62
     2
100
AcDbPolyline
 90
        4
 70
     1
 10
-1039.0
 20
693.0
 10
-1039.0
 20
725.0
 10
-836.0
 20
725.0
 10
-836.0
 20
693.0
  0
LWPOLYLINE
  5
44
100
AcDbEntity
  8
LAYER22
370
    18
390
0
  6
Continuous
 62
     1
100
AcDbPolyline
 90
        4
 70
     1
 10
-1138.0
 20
-1955.0
 10
-1138.0
 20
673.0
 10
-1123.0
 20
673.0
 10
-1123.0
 20
-1955.0
  0
LWPOLYLINE
  5
45
100
AcDbEntity
  8
LAYER22
370
    13
390
0
  6
DASHDOT
 62
     5
100
AcDbPolyline
 90
        2
 70
     0
 10
-814.0
 20
725.0
 10
-814.0
 20
-1955.0
  0
LWPOLYLINE
  5
46
100
AcDbEntity
  8
LAYER22
370
    18
390
0
  6
Continuous
 62
     1
100
AcDbPolyline
 90
        4
 70
     1
 10
-799.0
 20
-1955.0
 10
-799.0
 20
673.0
 10
-505.0
 20
673.0
 10
-505.0
 20
-1955.0
  0
LWPOLYLINE
  5
47
100
AcDbEntity
  8
LAYER22
370
    18
390
0
  6
Continuous
 62
     1
100
AcDbPolyline
 90
        4
 70
     1
 10
-505.0
 20
-1955.0
 10
-505.0
 20
673.0
 10
-490.0
 20
673.0
 10
-490.0
 20
-1955.0
  0
LWPOLYLINE
  5
48
100
AcDbEntity
  8
LAYER22
370
    18
390
0
  6
Continuous
 62
     1
100
AcDbPolyline
 90
        6
 70
     1
 10
-1123.0
 20
673.0
 10
-1123.0
 20
690.0
 42
-0.414214
 10
-1120.0
 20
693.0
 10
-508.0
 20
693.0
 42
-0.414214
 10
-505.0
 20
690.0
 10
-505.0
 20
673.0
  0
LWPOLYLINE
  5
49
100
AcDbEntity
  8
LAYER22
370
    18
390
0
  6
Continuous
 62
     1
100
AcDbPolyline
 90
        6
 70
     1
 10
-1123.0
 20
-1955.0
 10
-1123.0
 20
-1972.0
 42
0.414214
 10
-1120.0
 20
-1975.0
 10
-508.0
 20
-1975.0
 42
0.414214
 10
-505.0
 20
-1972.0
 10
-505.0
 20
-1955.0
  0
LWPOLYLINE
  5
4A
100
AcDbEntity
  8
LAYER22
370
    13
390
0
  6
DASHDOT
 62
     5
100
AcDbPolyline
 90
        2
 70
     0
 10
-135.96875
 20
314.230469
 10
1624.03125
 20
314.230469
  0
LWPOLYLINE
  5
4B
100
AcDbEntity
  8
LAYER22
370
    25
390
0
  6
Continuous
 62
     2
100
AcDbPolyline
 90
       16
 70
     1
 10
9.938944
 20
332.569183
 10
25.327463
 20
626.166199
 10
30.320608
 20
625.90448
 10
29.954216
 20
618.914063
 10
28.863914
 20
618.971191
 42
1.0
 10
33.010567
 20
618.753845
 10
31.951473
 20
618.809387
 10
32.317867
 20
625.799805
 10
37.311012
 20
625.538086
 10
21.922495
 20
331.941071
 10
16.929348
 20
332.202789
 10
17.29196
 20
339.121033
 10
18.351051
 20
339.065521
 42
1.035413
 10
14.2044
 20
339.282867
 10
15.294701
 20
339.225708
 10
14.93209
 20
332.307465
  0
LWPOLYLINE
  5
4C
100
AcDbEntity
  8
LAYER22
370
    25
390
0
  6
Continuous
 62
     2
100
AcDbPolyline
 90
       21
 70
     0
 10
37.466797
 20
629.539551
 10
31.453125
 20
629.539551
 10
31.453125
 20
618.861816
 10
33.013672
 20
618.861328
 42
-0.999763
 10
28.892578
 20
618.861328
 10
30.453125
 20
618.861328
 10
30.453125
 20
628.8125
 10
24.954102
 20
625.712402
 10
24.323242
 20
626.48877
 10
31.500977
 20
630.828613
 10
31.500977
 20
634.493652
 10
29.476563
 20
635.908691
 10
29.477539
 20
637.861816
 10
29.974609
 20
638.361816
 10
37.453125
 20
638.361816
 10
37.453125
 20
637.361816
 10
30.443359
 20
637.361816
 10
30.443359
 20
636.370605
 10
32.585938
 20
634.672363
 10
32.585938
 20
630.828613
 10
37.466797
 20
630.828613
  0
LWPOLYLINE
  5
4D
100
AcDbEntity
  8
LAYER22
370
    25
390
0
  6
Continuous
 62
     2
100
AcDbPolyline
 90
       21
 70
     0
 10
37.439453
 20
629.539551
 10
43.453125
 20
629.539551
 10
43.453125
 20
618.861816
 10
41.892578
 20
618.861328
 42
0.999763
 10
46.013672
 20
618.861328
 10
44.453125
 20
618.861328
 10
44.453125
 20
628.8125
 10
49.952148
 20
625.712402
 10
50.583008
 20
626.48877
 10
43.405273
 20
630.828613
 10
43.405273
 20
634.493652
 10
45.429688
 20
635.908691
 10
45.428711
 20
637.861816
 10
44.931641
 20
638.361816
 10
37.453125
 20
638.361816
 10
37.453125
 20
637.361816
 10
44.462891
 20
637.361816
 10
44.462891
 20
636.370605
 10
42.320313
 20
634.672363
 10
42.320313
 20
630.828613
 10
37.439453
 20
630.828613
  0
LWPOLYLINE
  5
4E
100
AcDbEntity
  8
LAYER22
370
    25
390
0
  6
Continuous
 62
     2
100
AcDbPolyline
 90
       13
 70
     0
 10
-0.835938
 20
332.716309
 10
-5.65918
 20
332.716309
 10
-17.719727
 20
339.678223
 10
-16.939453
 20
341.030273
 42
1.0
 10
-19.0
 20
337.460938
 10
-18.219727
 20
338.8125
 10
-8.97168
 20
333.474121
 10
-15.213867
 20
331.091309
 10
-14.858398
 20
330.157227
 10
-7.959961
 20
332.789063
 10
-6.788086
 20
332.080566
 10
-5.703125
 20
331.764648
 10
-0.835938
 20
331.764648
  0
LWPOLYLINE
  5
4F
100
AcDbEntity
  8
LAYER22
370
    25
390
0
  6
Continuous
 62
     2
100
AcDbPolyline
 90
       13
 70
     0
 10
-0.835938
 20
332.716309
 10
3.987305
 20
332.716309
 10
16.047852
 20
339.678223
 10
15.267578
 20
341.030273
 42
-1.0
 10
17.328125
 20
337.460938
 10
16.547852
 20
338.8125
 10
7.299805
 20
333.474121
 10
13.541992
 20
331.091309
 10
13.186523
 20
330.157227
 10
6.288086
 20
332.789063
 10
5.116211
 20
332.080566
 10
4.03125
 20
331.764648
 10
-0.835938
 20
331.764648
  0
LWPOLYLINE
  5
50
100
AcDbEntity
  8
LAYER22
370
    25
390
0
  6
Continuous
 62
     2
100
AcDbPolyline
 90
       11
 70
     0
 10
65.123047
 20
328.567871
 10
59.109375
 20
328.567871
 10
59.109375
 20
339.245605
 10
60.669922
 20
339.246094
 42
0.999763
 10
56.548828
 20
339.246094
 10
58.109375
 20
339.246094
 10
58.109375
 20
329.294922
 10
52.610352
 20
332.39502
 10
51.979492
 20
331.618652
 10
59.157227
 20
327.278809
 10
65.123047
 20
327.278809
  0
LWPOLYLINE
  5
51
100
AcDbEntity
  8
LAYER22
370
    25
390
0
  6
Continuous
 62
     2
100
AcDbPolyline
 90
       11
 70
     0
 10
65.095703
 20
328.567871
 10
71.109375
 20
328.567871
 10
71.109375
 20
339.245605
 10
69.548828
 20
339.246094
 42
-0.999763
 10
73.669922
 20
339.246094
 10
72.109375
 20
339.246094
 10
72.109375
 20
329.294922
 10
77.608398
 20
332.39502
 10
78.239258
 20
331.618652
 10
71.061523
 20
327.278809
 10
65.095703
 20
327.278809
  0
LWPOLYLINE
  5
52
100
AcDbEntity
  8
LAYER22
370
    25
390
0
  6
Continuous
 62
     2
100
AcDbPolyline
 90
       13
 70
     0
 10
131.058594
 20
332.716309
 10
126.235352
 20
332.716309
 10
114.174805
 20
339.678223
 10
114.955078
 20
341.030273
 42
1.0
 10
112.894531
 20
337.460938
 10
113.674805
 20
338.8125
 10
122.922852
 20
333.474121
 10
116.680664
 20
331.091309
 10
117.036133
 20
330.157227
 10
123.93457
 20
332.789063
 10
125.106445
 20
332.080566
 10
126.191406
 20
331.764648
 10
131.058594
 20
331.764648
  0
LWPOLYLINE
  5
53
100
AcDbEntity
  8
LAYER22
370
    25
390
0
  6
Continuous
 62
     2
100
AcDbPolyline
 90
       13
 70
     0
 10
131.058594
 20
332.716309
 10
135.881836
 20
332.716309
 10
147.942383
 20
339.678223
 10
147.162109
 20
341.030273
 42
-1.0
 10
149.222656
 20
337.460938
 10
148.442383
 20
338.8125
 10
139.194336
 20
333.474121
 10
145.436523
 20
331.091309
 10
145.081055
 20
330.157227
 10
138.182617
 20
332.789063
 10
137.010742
 20
332.080566
 10
135.925781
 20
331.764648
 10
131.058594
 20
331.764648
  0
LWPOLYLINE
  5
54
100
AcDbEntity
  8
LAYER22
370
    25
390
0
  6
Continuous
 62
     2
100
AcDbPolyline
 90
        4
 70
     1
 10
141.193359
 20
297.730469
 10
141.193359
 20
330.730469
 10
244.193359
 20
330.730469
 10
244.193359
 20
297.730469
  0
LWPOLYLINE
  5
55
100
AcDbEntity
  8
LAYER22
370
    25
390
0
  6
Continuous
 62
     2
100
AcDbPolyline
 90
       10
 70
     1
 10
141.193359
 20
345.230469
 10
141.193359
 20
340.230469
 10
148.193359
 20
340.230469
 10
148.193359
 20
341.321289
 42
-1.0
 10
148.193359
 20
337.169922
 10
148.193359
 20
338.230469
 10
141.193359
 20
338.230469
 10
141.193359
 20
333.230469
 10
266.193359
 20
333.230469
 10
266.193359
 20
345.230469
  0
LWPOLYLINE
  5
56
100
AcDbEntity
  8
LAYER22
370
    25
390
0
  6
Continuous
 62
     2
100
AcDbPolyline
 90
       10
 70
     1
 10
141.193359
 20
295.230469
 10
141.193359
 20
290.230469
 10
148.193359
 20
290.230469
 10
148.193359
 20
291.321289
 42
-1.0
 10
148.193359
 20
287.169922
 10
148.193359
 20
288.230469
 10
141.193359
 20
288.230469
 10
141.193359
 20
283.230469
 10
266.193359
 20
283.230469
 10
266.193359
 20
295.230469
  0
LWPOLYLINE
  5
57
100
AcDbEntity
  8
LAYER22
370
    35
390
0
  6
Continuous
 62
     4
100
AcDbPolyline
 90
        6
 70
     0
 10
266.193359
 20
345.230469
 10
266.193359
 20
327.635742
 10
244.193359
 20
323.355469
 10
244.193359
 20
305.105469
 10
266.193359
 20
300.825195
 10
266.193359
 20
283.230469
  0
LWPOLYLINE
  5
58
100
AcDbEntity
  8
LAYER22
370
    25
390
0
  6
Continuous
 62
     2
100
AcDbPolyline
 90
        8
 70
     1
 10
266.693359
 20
343.668945
 10
268.589844
 20
343.668945
 42
-0.5275
 10
268.589844
 20
329.136719
 10
266.888672
 20
329.137207
 10
266.888672
 20
331.174805
 10
268.589844
 20
331.174805
 42
0.686995
 10
268.589844
 20
341.630859
 10
266.693359
 20
341.631348
  0
LWPOLYLINE
  5
59
100
AcDbEntity
  8
LAYER22
370
    25
390
0
  6
Continuous
 62
     2
100
AcDbPolyline
 90
       14
 70
     1
 10
260.785156
 20
345.730469
 10
266.693359
 20
345.730469
 10
266.693359
 20
344.168945
 10
268.589844
 20
344.168945
 10
268.589844
 20
343.668945
 10
266.693359
 20
343.668945
 10
266.693359
 20
341.631348
 10
268.589844
 20
341.631348
 10
268.589844
 20
341.131348
 10
266.693359
 20
341.131348
 10
266.693359
 20
340.209473
 10
266.193359
 20
340.209473
 10
266.193359
 20
345.230469
 10
260.785156
 20
345.230469
  0
LWPOLYLINE
  5
5A
100
AcDbEntity
  8
LAYER22
370
    25
390
0
  6
Continuous
 62
     2
100
AcDbPolyline
 90
       12
 70
     1
 10
266.693359
 20
327.575195
 10
266.693359
 20
328.636719
 10
268.589844
 20
328.636719
 10
268.589844
 20
329.136719
 10
266.693359
 20
329.136719
 10
266.693359
 20
331.174316
 10
268.589844
 20
331.174316
 10
268.589844
 20
331.674316
 10
266.693359
 20
331.674316
 10
266.693359
 20
332.596191
 10
266.193359
 20
332.596191
 10
266.193359
 20
327.575195
  0
LWPOLYLINE
  5
5B
100
AcDbEntity
  8
LAYER22
370
    25
390
0
  6
Continuous
 62
     2
100
AcDbPolyline
 90
        8
 70
     1
 10
266.693359
 20
284.791992
 10
268.589844
 20
284.791992
 42
0.5275
 10
268.589844
 20
299.324219
 10
266.888672
 20
299.32373
 10
266.888672
 20
297.286133
 10
268.589844
 20
297.286133
 42
-0.686995
 10
268.589844
 20
286.830078
 10
266.693359
 20
286.82959
  0
LWPOLYLINE
  5
5C
100
AcDbEntity
  8
LAYER22
370
    25
390
0
  6
Continuous
 62
     2
100
AcDbPolyline
 90
       14
 70
     1
 10
260.785156
 20
282.730469
 10
266.693359
 20
282.730469
 10
266.693359
 20
284.291992
 10
268.589844
 20
284.291992
 10
268.589844
 20
284.791992
 10
266.693359
 20
284.791992
 10
266.693359
 20
286.82959
 10
268.589844
 20
286.82959
 10
268.589844
 20
287.32959
 10
266.693359
 20
287.32959
 10
266.693359
 20
288.251465
 10
266.193359
 20
288.251465
 10
266.193359
 20
283.230469
 10
260.785156
 20
283.230469
  0
LWPOLYLINE
  5
5D
100
AcDbEntity
  8
LAYER22
370
    25
390
0
  6
Continuous
 62
     2
100
AcDbPolyline
 90
       12
 70
     1
 10
266.693359
 20
300.885742
 10
266.693359
 20
299.824219
 10
268.589844
 20
299.824219
 10
268.589844
 20
299.324219
 10
266.693359
 20
299.324219
 10
266.693359
 20
297.286621
 10
268.589844
 20
297.286621
 10
268.589844
 20
296.786621
 10
266.693359
 20
296.786621
 10
266.693359
 20
295.864746
 10
266.193359
 20
295.864746
 10
266.193359
 20
300.885742
  0
LWPOLYLINE
  5
5E
100
AcDbEntity
  8
LAYER22
370
    25
390
0
  6
Continuous
 62
     2
100
AcDbPolyline
 90
        4
 70
     1
 10
-135.96875
 20
297.730469
 10
-135.96875
 20
330.730469
 10
-10.96875
 20
330.730469
 10
-10.96875
 20
297.730469
  0
LWPOLYLINE
  5
5F
100
AcDbEntity
  8
LAYER22
370
    25
390
0
  6
Continuous
 62
     2
100
AcDbPolyline
 90
       10
 70
     1
 10
-10.96875
 20
345.230469
 10
-10.96875
 20
340.230469
 10
-17.96875
 20
340.230469
 10
-17.96875
 20
341.321289
 42
1.0
 10
-17.96875
 20
337.169922
 10
-17.96875
 20
338.230469
 10
-10.96875
 20
338.230469
 10
-10.96875
 20
333.230469
 10
-135.96875
 20
333.230469
 10
-135.96875
 20
345.230469
  0
LWPOLYLINE
  5
60
100
AcDbEntity
  8
LAYER22
370
    25
390
0
  6
Continuous
 62
     2
100
AcDbPolyline
 90
       10
 70
     1
 10
-10.96875
 20
295.230469
 10
-10.96875
 20
290.230469
 10
-17.96875
 20
290.230469
 10
-17.96875
 20
291.321289
 42
1.0
 10
-17.96875
 20
287.169922
 10
-17.96875
 20
288.230469
 10
-10.96875
 20
288.230469
 10
-10.96875
 20
283.230469
 10
-135.96875
 20
283.230469
 10
-135.96875
 20
295.230469
  0
LWPOLYLINE
  5
61
100
AcDbEntity
  8
LAYER22
370
    35
390
0
  6
Continuous
 62
     4
100
AcDbPolyline
 90
        8
 70
     0
 10
1624.03125
 20
283.230469
 10
1609.332031
 20
283.230469
 10
1609.332031
 20
300.825195
 10
1587.13916
 20
305.006836
 10
1587.13916
 20
323.453613
 10
1609.313477
 20
327.733398
 10
1609.313477
 20
345.730469
 10
1624.03125
 20
345.730469
  0
LWPOLYLINE
  5
62
100
AcDbEntity
  8
LAYER22
370
    18
390
0
  6
DASHED
 62
     1
100
AcDbPolyline
 90
        4
 70
     1
 10
-10.96875
 20
330.730469
 10
1624.03125
 20
330.730469
 10
1624.03125
 20
297.730469
 10
-10.96875
 20
297.730469
  0
LWPOLYLINE
  5
63
100
AcDbEntity
  8
LAYER22
370
    25
390
0
  6
Continuous
 62
     2
100
AcDbPolyline
 90
       13
 70
     0
 10
-0.835938
 20
295.744629
 10
-5.65918
 20
295.744629
 10
-17.719727
 20
288.782715
 10
-16.939453
 20
287.430664
 42
-1.0
 10
-19.0
 20
291.0
 10
-18.219727
 20
289.648438
 10
-8.97168
 20
294.986816
 10
-15.213867
 20
297.369629
 10
-14.858398
 20
298.303711
 10
-7.959961
 20
295.671875
 10
-6.788086
 20
296.380371
 10
-5.703125
 20
296.696289
 10
-0.835938
 20
296.696289
  0
LWPOLYLINE
  5
64
100
AcDbEntity
  8
LAYER22
370
    25
390
0
  6
Continuous
 62
     2
100
AcDbPolyline
 90
       13
 70
     0
 10
-0.835938
 20
295.744629
 10
3.987305
 20
295.744629
 10
16.047852
 20
288.782715
 10
15.267578
 20
287.430664
 42
1.0
 10
17.328125
 20
291.0
 10
16.547852
 20
289.648438
 10
7.299805
 20
294.986816
 10
13.541992
 20
297.369629
 10
13.186523
 20
298.303711
 10
6.288086
 20
295.671875
 10
5.116211
 20
296.380371
 10
4.03125
 20
296.696289
 10
-0.835938
 20
296.696289
  0
LWPOLYLINE
  5
65
100
AcDbEntity
  8
LAYER22
370
    25
390
0
  6
Continuous
 62
     2
100
AcDbPolyline
 90
       13
 70
     0
 10
131.058594
 20
295.744629
 10
126.235352
 20
295.744629
 10
114.174805
 20
288.782715
 10
114.955078
 20
287.430664
 42
-1.0
 10
112.894531
 20
291.0
 10
113.674805
 20
289.648438
 10
122.922852
 20
294.986816
 10
116.680664
 20
297.369629
 10
117.036133
 20
298.303711
 10
123.93457
 20
295.671875
 10
125.106445
 20
296.380371
 10
126.191406
 20
296.696289
 10
131.058594
 20
296.696289
  0
LWPOLYLINE
  5
66
100
AcDbEntity
  8
LAYER22
370
    25
390
0
  6
Continuous
 62
     2
100
AcDbPolyline
 90
       13
 70
     0
 10
131.058594
 20
295.744629
 10
135.881836
 20
295.744629
 10
147.942383
 20
288.782715
 10
147.162109
 20
287.430664
 42
1.0
 10
149.222656
 20
291.0
 10
148.442383
 20
289.648438
 10
139.194336
 20
294.986816
 10
145.436523
 20
297.369629
 10
145.081055
 20
298.303711
 10
138.182617
 20
295.671875
 10
137.010742
 20
296.380371
 10
135.925781
 20
296.696289
 10
131.058594
 20
296.696289
  0
LWPOLYLINE
  5
67
100
AcDbEntity
  8
LAYER22
370
    25
390
0
  6
Continuous
 62
     2
100
AcDbPolyline
 90
       16
 70
     1
 10
64.967308
 20
332.569183
 10
49.578789
 20
626.166199
 10
44.58564
 20
625.90448
 10
44.952034
 20
618.914063
 10
46.042336
 20
618.971191
 42
-1.0
 10
41.895683
 20
618.753845
 10
42.954777
 20
618.809387
 10
42.588383
 20
625.799805
 10
37.595238
 20
625.538086
 10
52.983757
 20
331.941071
 10
57.976902
 20
332.202789
 10
57.614292
 20
339.121033
 10
56.555199
 20
339.065521
 42
-1.035413
 10
60.701851
 20
339.282867
 10
59.611549
 20
339.225708
 10
59.974159
 20
332.307465
  0
LWPOLYLINE
  5
68
100
AcDbEntity
  8
LAYER22
370
    25
390
0
  6
Continuous
 62
     2
100
AcDbPolyline
 90
       16
 70
     1
 10
65.251442
 20
332.569183
 10
80.639961
 20
626.166199
 10
85.63311
 20
625.90448
 10
85.266716
 20
618.914063
 10
84.176414
 20
618.971191
 42
1.0
 10
88.323067
 20
618.753845
 10
87.263977
 20
618.809387
 10
87.630371
 20
625.799805
 10
92.623512
 20
625.538086
 10
77.234993
 20
331.941071
 10
72.241852
 20
332.202789
 10
72.604462
 20
339.121033
 10
73.663551
 20
339.065521
 42
1.035413
 10
69.516899
 20
339.282867
 10
70.607201
 20
339.225708
 10
70.244591
 20
332.307465
  0
LWPOLYLINE
  5
69
100
AcDbEntity
  8
LAYER22
370
    25
390
0
  6
Continuous
 62
     2
100
AcDbPolyline
 90
       21
 70
     0
 10
92.779297
 20
629.539551
 10
86.765625
 20
629.539551
 10
86.765625
 20
618.861816
 10
88.326172
 20
618.861328
 42
-0.999763
 10
84.205078
 20
618.861328
 10
85.765625
 20
618.861328
 10
85.765625
 20
628.8125
 10
80.266602
 20
625.712402
 10
79.635742
 20
626.48877
 10
86.813477
 20
630.828613
 10
86.813477
 20
634.493652
 10
84.789063
 20
635.908691
 10
84.790039
 20
637.861816
 10
85.287109
 20
638.361816
 10
92.765625
 20
638.361816
 10
92.765625
 20
637.361816
 10
85.755859
 20
637.361816
 10
85.755859
 20
636.370605
 10
87.898438
 20
634.672363
 10
87.898438
 20
630.828613
 10
92.779297
 20
630.828613
  0
LWPOLYLINE
  5
6A
100
AcDbEntity
  8
LAYER22
370
    25
390
0
  6
Continuous
 62
     2
100
AcDbPolyline
 90
       21
 70
     0
 10
92.751953
 20
629.539551
 10
98.765625
 20
629.539551
 10
98.765625
 20
618.861816
 10
97.205078
 20
618.861328
 42
0.999763
 10
101.326172
 20
618.861328
 10
99.765625
 20
618.861328
 10
99.765625
 20
628.8125
 10
105.264648
 20
625.712402
 10
105.895508
 20
626.48877
 10
98.717773
 20
630.828613
 10
98.717773
 20
634.493652
 10
100.742188
 20
635.908691
 10
100.741211
 20
637.861816
 10
100.244141
 20
638.361816
 10
92.765625
 20
638.361816
 10
92.765625
 20
637.361816
 10
99.775391
 20
637.361816
 10
99.775391
 20
636.370605
 10
97.632813
 20
634.672363
 10
97.632813
 20
630.828613
 10
92.751953
 20
630.828613
  0
LWPOLYLINE
  5
6B
100
AcDbEntity
  8
LAYER22
370
    25
390
0
  6
Continuous
 62
     2
100
AcDbPolyline
 90
       16
 70
     1
 10
120.279808
 20
332.569183
 10
104.891289
 20
626.166199
 10
99.89814
 20
625.90448
 10
100.264534
 20
618.914063
 10
101.354836
 20
618.971191
 42
-1.0
 10
97.208183
 20
618.753845
 10
98.267273
 20
618.809387
 10
97.900879
 20
625.799805
 10
92.907738
 20
625.538086
 10
108.296257
 20
331.941071
 10
113.289398
 20
332.202789
 10
112.926788
 20
339.121033
 10
111.867699
 20
339.065521
 42
-1.035413
 10
116.014351
 20
339.282867
 10
114.924049
 20
339.225708
 10
115.286659
 20
332.307465
  0
LWPOLYLINE
  5
6C
100
AcDbEntity
  8
LAYER22
370
    25
390
0
  6
Continuous
 62
     2
100
AcDbPolyline
 90
       16
 70
     1
 10
9.938944
 20
295.891754
 10
25.327463
 20
2.294765
 10
30.320608
 20
2.556474
 10
29.954216
 20
9.546879
 10
28.863914
 20
9.489732
 42
-1.0
 10
33.010567
 20
9.707073
 10
31.951473
 20
9.651563
 10
32.317867
 20
2.661158
 10
37.311012
 20
2.922868
 10
21.922495
 20
296.519867
 10
16.929348
 20
296.258148
 10
17.29196
 20
289.339905
 10
18.351051
 20
289.395416
 42
-1.035413
 10
14.2044
 20
289.17807
 10
15.294701
 20
289.235229
 10
14.93209
 20
296.153473
  0
LWPOLYLINE
  5
6D
100
AcDbEntity
  8
LAYER22
370
    25
390
0
  6
Continuous
 62
     2
100
AcDbPolyline
 90
       21
 70
     0
 10
37.466797
 20
-1.078613
 10
31.453125
 20
-1.078613
 10
31.453125
 20
9.599121
 10
33.013672
 20
9.599609
 42
0.999763
 10
28.892578
 20
9.599609
 10
30.453125
 20
9.599609
 10
30.453125
 20
-0.351563
 10
24.954102
 20
2.748535
 10
24.323242
 20
1.972168
 10
31.500977
 20
-2.367676
 10
31.500977
 20
-6.032715
 10
29.476563
 20
-7.447754
 10
29.477539
 20
-9.400879
 10
29.974609
 20
-9.900879
 10
37.453125
 20
-9.900879
 10
37.453125
 20
-8.900879
 10
30.443359
 20
-8.900879
 10
30.443359
 20
-7.909668
 10
32.585938
 20
-6.211426
 10
32.585938
 20
-2.367676
 10
37.466797
 20
-2.367676
  0
LWPOLYLINE
  5
6E
100
AcDbEntity
  8
LAYER22
370
    25
390
0
  6
Continuous
 62
     2
100
AcDbPolyline
 90
       21
 70
     0
 10
37.439453
 20
-1.078613
 10
43.453125
 20
-1.078613
 10
43.453125
 20
9.599121
 10
41.892578
 20
9.599609
 42
-0.999763
 10
46.013672
 20
9.599609
 10
44.453125
 20
9.599609
 10
44.453125
 20
-0.351563
 10
49.952148
 20
2.748535
 10
50.583008
 20
1.972168
 10
43.405273
 20
-2.367676
 10
43.405273
 20
-6.032715
 10
45.429688
 20
-7.447754
 10
45.428711
 20
-9.400879
 10
44.931641
 20
-9.900879
 10
37.453125
 20
-9.900879
 10
37.453125
 20
-8.900879
 10
44.462891
 20
-8.900879
 10
44.462891
 20
-7.909668
 10
42.320313
 20
-6.211426
 10
42.320313
 20
-2.367676
 10
37.439453
 20
-2.367676
  0
LWPOLYLINE
  5
6F
100
AcDbEntity
  8
LAYER22
370
    25
390
0
  6
Continuous
 62
     2
100
AcDbPolyline
 90
       11
 70
     0
 10
65.123047
 20
299.893066
 10
59.109375
 20
299.893066
 10
59.109375
 20
289.215332
 10
60.669922
 20
289.214844
 42
-0.999763
 10
56.548828
 20
289.214844
 10
58.109375
 20
289.214844
 10
58.109375
 20
299.166016
 10
52.610352
 20
296.065918
 10
51.979492
 20
296.842285
 10
59.157227
 20
301.182129
 10
65.123047
 20
301.182129
  0
LWPOLYLINE
  5
70
100
AcDbEntity
  8
LAYER22
370
    25
390
0
  6
Continuous
 62
     2
100
AcDbPolyline
 90
       11
 70
     0
 10
65.095703
 20
299.893066
 10
71.109375
 20
299.893066
 10
71.109375
 20
289.215332
 10
69.548828
 20
289.214844
 42
0.999763
 10
73.669922
 20
289.214844
 10
72.109375
 20
289.214844
 10
72.109375
 20
299.166016
 10
77.608398
 20
296.065918
 10
78.239258
 20
296.842285
 10
71.061523
 20
301.182129
 10
65.095703
 20
301.182129
  0
LWPOLYLINE
  5
71
100
AcDbEntity
  8
LAYER22
370
    25
390
0
  6
Continuous
 62
     2
100
AcDbPolyline
 90
       16
 70
     1
 10
64.967308
 20
295.891754
 10
49.578789
 20
2.294765
 10
44.58564
 20
2.556474
 10
44.952034
 20
9.546879
 10
46.042336
 20
9.489732
 42
1.0
 10
41.895683
 20
9.707073
 10
42.954777
 20
9.651563
 10
42.588383
 20
2.661158
 10
37.595238
 20
2.922868
 10
52.983757
 20
296.519867
 10
57.976902
 20
296.258148
 10
57.614292
 20
289.339905
 10
56.555199
 20
289.395416
 42
1.035413
 10
60.701851
 20
289.17807
 10
59.611549
 20
289.235229
 10
59.974159
 20
296.153473
  0
LWPOLYLINE
  5
72
100
AcDbEntity
  8
LAYER22
370
    25
390
0
  6
Continuous
 62
     2
100
AcDbPolyline
 90
       16
 70
     1
 10
65.251442
 20
295.891754
 10
80.639961
 20
2.294765
 10
85.63311
 20
2.556474
 10
85.266716
 20
9.546879
 10
84.176414
 20
9.489732
 42
-1.0
 10
88.323067
 20
9.707073
 10
87.263977
 20
9.651563
 10
87.630371
 20
2.661158
 10
92.623512
 20
2.922868
 10
77.234993
 20
296.519867
 10
72.241852
 20
296.258148
 10
72.604462
 20
289.339905
 10
73.663551
 20
289.395416
 42
-1.035413
 10
69.516899
 20
289.17807
 10
70.607201
 20
289.235229
 10
70.244591
 20
296.153473
  0
LWPOLYLINE
  5
73
100
AcDbEntity
  8
LAYER22
370
    25
390
0
  6
Continuous
 62
     2
100
AcDbPolyline
 90
       21
 70
     0
 10
92.779297
 20
-1.078613
 10
86.765625
 20
-1.078613
 10
86.765625
 20
9.599121
 10
88.326172
 20
9.599609
 42
0.999763
 10
84.205078
 20
9.599609
 10
85.765625
 20
9.599609
 10
85.765625
 20
-0.351563
 10
80.266602
 20
2.748535
 10
79.635742
 20
1.972168
 10
86.813477
 20
-2.367676
 10
86.813477
 20
-6.032715
 10
84.789063
 20
-7.447754
 10
84.790039
 20
-9.400879
 10
85.287109
 20
-9.900879
 10
92.765625
 20
-9.900879
 10
92.765625
 20
-8.900879
 10
85.755859
 20
-8.900879
 10
85.755859
 20
-7.909668
 10
87.898438
 20
-6.211426
 10
87.898438
 20
-2.367676
 10
92.779297
 20
-2.367676
  0
LWPOLYLINE
  5
74
100
AcDbEntity
  8
LAYER22
370
    25
390
0
  6
Continuous
 62
     2
100
AcDbPolyline
 90
       21
 70
     0
 10
92.751953
 20
-1.078613
 10
98.765625
 20
-1.078613
 10
98.765625
 20
9.599121
 10
97.205078
 20
9.599609
 42
-0.999763
 10
101.326172
 20
9.599609
 10
99.765625
 20
9.599609
 10
99.765625
 20
-0.351563
 10
105.264648
 20
2.748535
 10
105.895508
 20
1.972168
 10
98.717773
 20
-2.367676
 10
98.717773
 20
-6.032715
 10
100.742188
 20
-7.447754
 10
100.741211
 20
-9.400879
 10
100.244141
 20
-9.900879
 10
92.765625
 20
-9.900879
 10
92.765625
 20
-8.900879
 10
99.775391
 20
-8.900879
 10
99.775391
 20
-7.909668
 10
97.632813
 20
-6.211426
 10
97.632813
 20
-2.367676
 10
92.751953
 20
-2.367676
  0
LWPOLYLINE
  5
75
100
AcDbEntity
  8
LAYER22
370
    25
390
0
  6
Continuous
 62
     2
100
AcDbPolyline
 90
       16
 70
     1
 10
120.279808
 20
295.891754
 10
104.891289
 20
2.294765
 10
99.89814
 20
2.556474
 10
100.264534
 20
9.546879
 10
101.354836
 20
9.489732
 42
1.0
 10
97.208183
 20
9.707073
 10
98.267273
 20
9.651563
 10
97.900879
 20
2.661158
 10
92.907738
 20
2.922868
 10
108.296257
 20
296.519867
 10
113.289398
 20
296.258148
 10
112.926788
 20
289.339905
 10
111.867699
 20
289.395416
 42
1.035413
 10
116.014351
 20
289.17807
 10
114.924049
 20
289.235229
 10
115.286659
 20
296.153473
  0
LWPOLYLINE
  5
76
100
AcDbEntity
  8
LAYER22
370
    25
390
0
  6
Continuous
 62
     2
100
AcDbPolyline
 90
       16
 70
     1
 10
8.152571
 20
-232.647934
 10
262.761292
 20
-85.643188
 10
265.261383
 20
-89.973267
 10
259.19928
 20
-93.473381
 10
258.653351
 20
-92.527863
 42
1.0
 10
260.729584
 20
-96.123863
 10
260.19931
 20
-95.205414
 10
266.261414
 20
-91.705299
 10
268.761505
 20
-96.035378
 10
14.152764
 20
-243.040131
 10
11.652684
 20
-238.710052
 10
17.652214
 20
-235.246063
 10
18.182505
 20
-236.16452
 42
1.035413
 10
16.106264
 20
-232.568527
 10
16.652182
 20
-233.514038
 10
10.652652
 20
-236.978012
  0
LWPOLYLINE
  5
77
100
AcDbEntity
  8
LAYER22
370
    25
390
0
  6
Continuous
 62
     2
100
AcDbPolyline
 90
       22
 70
     0
 10
276.835938
 20
-87.80957
 10
272.012695
 20
-87.80957
 10
259.952148
 20
-94.771973
 10
260.732422
 20
-96.124023
 42
-1.0
 10
258.671875
 20
-92.554688
 10
259.452148
 20
-93.90625
 10
268.700195
 20
-88.567383
 10
262.458008
 20
-86.18457
 10
262.813477
 20
-85.250488
 10
269.711914
 20
-87.882324
 10
270.883789
 20
-87.173828
 10
270.883789
 20
-83.508789
 10
268.859375
 20
-82.09375
 10
268.860352
 20
-80.140625
 10
269.357422
 20
-79.640625
 10
276.835938
 20
-79.640625
 10
276.835938
 20
-80.640625
 10
269.826172
 20
-80.640625
 10
269.826172
 20
-81.631836
 10
271.96875
 20
-83.330078
 10
271.96875
 20
-86.85791
 10
276.835938
 20
-86.85791
  0
LWPOLYLINE
  5
78
100
AcDbEntity
  8
LAYER22
370
    25
390
0
  6
Continuous
 62
     2
100
AcDbPolyline
 90
       22
 70
     0
 10
276.835938
 20
-87.80957
 10
281.65918
 20
-87.80957
 10
293.719727
 20
-94.771973
 10
292.939453
 20
-96.124023
 42
1.0
 10
295.0
 20
-92.554688
 10
294.219727
 20
-93.90625
 10
284.97168
 20
-88.567383
 10
291.213867
 20
-86.18457
 10
290.858398
 20
-85.250488
 10
283.959961
 20
-87.882324
 10
282.788086
 20
-87.173828
 10
282.788086
 20
-83.508789
 10
284.8125
 20
-82.09375
 10
284.811523
 20
-80.140625
 10
284.314453
 20
-79.640625
 10
276.835938
 20
-79.640625
 10
276.835938
 20
-80.640625
 10
283.845703
 20
-80.640625
 10
283.845703
 20
-81.631836
 10
281.703125
 20
-83.330078
 10
281.703125
 20
-86.85791
 10
276.835938
 20
-86.85791
  0
LWPOLYLINE
  5
79
100
AcDbEntity
  8
LAYER22
370
    25
390
0
  6
Continuous
 62
     2
100
AcDbPolyline
 90
       13
 70
     0
 10
553.585938
 20
-240.872803
 10
548.762695
 20
-240.872803
 10
536.702148
 20
-233.9104
 10
537.482422
 20
-232.55835
 42
1.0
 10
535.421875
 20
-236.127686
 10
536.202148
 20
-234.776123
 10
545.450195
 20
-240.11499
 10
539.208008
 20
-242.497803
 10
539.563477
 20
-243.431885
 10
546.461914
 20
-240.800049
 10
547.633789
 20
-241.508545
 10
548.71875
 20
-241.824463
 10
553.585938
 20
-241.824463
  0
LWPOLYLINE
  5
7A
100
AcDbEntity
  8
LAYER22
370
    25
390
0
  6
Continuous
 62
     2
100
AcDbPolyline
 90
       13
 70
     0
 10
553.585938
 20
-240.872803
 10
558.40918
 20
-240.872803
 10
570.469727
 20
-233.9104
 10
569.689453
 20
-232.55835
 42
-1.0
 10
571.75
 20
-236.127686
 10
570.969727
 20
-234.776123
 10
561.72168
 20
-240.11499
 10
567.963867
 20
-242.497803
 10
567.608398
 20
-243.431885
 10
560.709961
 20
-240.800049
 10
559.538086
 20
-241.508545
 10
558.453125
 20
-241.824463
 10
553.585938
 20
-241.824463
  0
LWPOLYLINE
  5
7B
100
AcDbEntity
  8
LAYER22
370
    18
390
0
  6
DASHED
 62
     1
100
AcDbPolyline
 90
        4
 70
     1
 10
2.167969
 20
-252.769531
 10
2.167969
 20
-246.769531
 10
26.167969
 20
-246.769531
 10
26.167969
 20
-252.769531
  0
LWPOLYLINE
  5
7C
100
AcDbEntity
  8
LAYER22
370
    18
390
0
  6
DASHED
 62
     1
100
AcDbPolyline
 90
        4
 70
     1
 10
7.667969
 20
-252.769531
 10
20.667969
 20
-252.769531
 10
20.667969
 20
-270.769531
 10
7.667969
 20
-270.769531
  0
LWPOLYLINE
  5
7D
100
AcDbEntity
  8
LAYER22
370
    18
390
0
  6
DASHED
 62
     1
100
AcDbPolyline
 90
        4
 70
     1
 10
2.167969
 20
-276.769531
 10
2.167969
 20
-270.769531
 10
26.167969
 20
-270.769531
 10
26.167969
 20
-276.769531
  0
CIRCLE
  5
7E
100
AcDbEntity
  8
LAYER22
390
0
  6
Continuous
 62
     1
100
AcDbCircle
 10
14.167969
 20
-261.769531
 30
0.0
 40
6.0
  0
CIRCLE
  5
7F
100
AcDbEntity
  8
LAYER22
390
0
  6
Continuous
 62
     1
100
AcDbCircle
 10
14.167969
 20
-261.769531
 30
0.0
 40
5.0
  0
LWPOLYLINE
  5
80
100
AcDbEntity
  8
LAYER22
370
    18
390
0
  6
DASHED
 62
     1
100
AcDbPolyline
 90
        2
 70
     0
 10
11.667969
 20
-266.099609
 10
16.667969
 20
-257.439331
  0
LWPOLYLINE
  5
81
100
AcDbEntity
  8
LAYER22
370
    18
390
0
  6
DASHED
 62
     1
100
AcDbPolyline
 90
        4
 70
     1
 10
527.375
 20
-252.768555
 10
527.375
 20
-246.768555
 10
551.375
 20
-246.768555
 10
551.375
 20
-252.768555
  0
LWPOLYLINE
  5
82
100
AcDbEntity
  8
LAYER22
370
    18
390
0
  6
DASHED
 62
     1
100
AcDbPolyline
 90
        4
 70
     1
 10
532.875
 20
-252.768555
 10
545.875
 20
-252.768555
 10
545.875
 20
-270.768555
 10
532.875
 20
-270.768555
  0
LWPOLYLINE
  5
83
100
AcDbEntity
  8
LAYER22
370
    18
390
0
  6
DASHED
 62
     1
100
AcDbPolyline
 90
        4
 70
     1
 10
527.375
 20
-276.768555
 10
527.375
 20
-270.768555
 10
551.375
 20
-270.768555
 10
551.375
 20
-276.768555
  0
CIRCLE
  5
84
100
AcDbEntity
  8
LAYER22
390
0
  6
Continuous
 62
     1
100
AcDbCircle
 10
539.375
 20
-261.768555
 30
0.0
 40
6.0
  0
CIRCLE
  5
85
100
AcDbEntity
  8
LAYER22
390
0
  6
Continuous
 62
     1
100
AcDbCircle
 10
539.375
 20
-261.768555
 30
0.0
 40
5.0
  0
LWPOLYLINE
  5
86
100
AcDbEntity
  8
LAYER22
370
    18
390
0
  6
DASHED
 62
     1
100
AcDbPolyline
 90
        2
 70
     0
 10
536.875
 20
-266.098633
 10
541.875
 20
-257.438354
  0
LWPOLYLINE
  5
87
100
AcDbEntity
  8
LAYER22
370
    25
390
0
  6
Continuous
 62
     2
100
AcDbPolyline
 90
       10
 70
     0
 10
4.905591
 20
-282.665466
 10
16.966244
 20
-289.627686
 10
16.185989
 20
-290.979736
 42
1.0
 10
18.246483
 20
-287.41037
 10
17.46623
 20
-288.761932
 10
8.218102
 20
-283.423218
 10
14.460253
 20
-281.040314
 10
14.104771
 20
-280.106232
 10
7.101882
 20
-282.778229
 10
4.905571
 20
-281.367615
  0
LWPOLYLINE
  5
88
100
AcDbEntity
  8
LAYER22
370
    25
390
0
  6
Continuous
 62
     2
100
AcDbPolyline
 90
       12
 70
     0
 10
4.905591
 20
-282.665466
 10
-4.043558
 20
-287.284241
 10
-17.968363
 20
-287.284454
 10
-17.96834
 20
-288.84549
 42
-0.999763
 10
-17.969378
 20
-284.724396
 10
-17.968378
 20
-286.284943
 10
-7.291131
 20
-286.284302
 10
-11.506054
 20
-281.100281
 10
-10.730185
 20
-280.469391
 10
-6.002069
 20
-286.284271
 10
-4.198358
 20
-286.284241
 10
4.905571
 20
-281.367615
  0
LWPOLYLINE
  5
89
100
AcDbEntity
  8
LAYER22
370
    25
390
0
  6
Continuous
 62
     2
100
AcDbPolyline
 90
       10
 70
     0
 10
4.905591
 20
-240.873611
 10
16.966244
 20
-233.911392
 10
16.185989
 20
-232.559326
 42
-1.0
 10
18.246483
 20
-236.128693
 10
17.46623
 20
-234.777115
 10
8.218102
 20
-240.115845
 10
14.460253
 20
-242.498749
 10
14.104771
 20
-243.432831
 10
7.101882
 20
-240.760849
 10
4.905571
 20
-242.171463
  0
LWPOLYLINE
  5
8A
100
AcDbEntity
  8
LAYER22
370
    25
390
0
  6
Continuous
 62
     2
100
AcDbPolyline
 90
       12
 70
     0
 10
4.905591
 20
-240.873611
 10
-4.043558
 20
-236.254822
 10
-17.968363
 20
-236.254608
 10
-17.96834
 20
-234.693573
 42
0.999763
 10
-17.969378
 20
-238.814667
 10
-17.968378
 20
-237.25412
 10
-7.291131
 20
-237.254776
 10
-11.506054
 20
-242.438797
 10
-10.730185
 20
-243.069656
 10
-6.002069
 20
-237.254791
 10
-4.198358
 20
-237.254822
 10
4.905571
 20
-242.171463
  0
LWPOLYLINE
  5
8B
100
AcDbEntity
  8
LAYER22
370
    18
390
0
  6
DASHED
 62
     1
100
AcDbPolyline
 90
        4
 70
     1
 10
555.796875
 20
-252.768555
 10
555.796875
 20
-246.768555
 10
579.796875
 20
-246.768555
 10
579.796875
 20
-252.768555
  0
LWPOLYLINE
  5
8C
100
AcDbEntity
  8
LAYER22
370
    18
390
0
  6
DASHED
 62
     1
100
AcDbPolyline
 90
        4
 70
     1
 10
561.296875
 20
-252.768555
 10
574.296875
 20
-252.768555
 10
574.296875
 20
-270.768555
 10
561.296875
 20
-270.768555
  0
LWPOLYLINE
  5
8D
100
AcDbEntity
  8
LAYER22
370
    18
390
0
  6
DASHED
 62
     1
100
AcDbPolyline
 90
        4
 70
     1
 10
555.796875
 20
-276.768555
 10
555.796875
 20
-270.768555
 10
579.796875
 20
-270.768555
 10
579.796875
 20
-276.768555
  0
CIRCLE
  5
8E
100
AcDbEntity
  8
LAYER22
390
0
  6
Continuous
 62
     1
100
AcDbCircle
 10
567.796875
 20
-261.768555
 30
0.0
 40
6.0
  0
CIRCLE
  5
8F
100
AcDbEntity
  8
LAYER22
390
0
  6
Continuous
 62
     1
100
AcDbCircle
 10
567.796875
 20
-261.768555
 30
0.0
 40
5.0
  0
LWPOLYLINE
  5
90
100
AcDbEntity
  8
LAYER22
370
    18
390
0
  6
DASHED
 62
     1
100
AcDbPolyline
 90
        2
 70
     0
 10
565.296875
 20
-266.098633
 10
570.296875
 20
-257.438354
  0
LWPOLYLINE
  5
91
100
AcDbEntity
  8
LAYER22
370
    25
390
0
  6
Continuous
 62
     2
100
AcDbPolyline
 90
       10
 70
     0
 10
1102.266235
 20
-282.665466
 10
1090.205688
 20
-289.627686
 10
1090.98584
 20
-290.979736
 42
-1.0
 10
1088.925415
 20
-287.41037
 10
1089.705688
 20
-288.761932
 10
1098.953735
 20
-283.423218
 10
1092.71167
 20
-281.040314
 10
1093.067139
 20
-280.106232
 10
1100.069946
 20
-282.778198
 10
1102.266357
 20
-281.367615
  0
LWPOLYLINE
  5
92
100
AcDbEntity
  8
LAYER22
370
    25
390
0
  6
Continuous
 62
     2
100
AcDbPolyline
 90
       12
 70
     0
 10
1102.266235
 20
-282.665466
 10
1111.215454
 20
-287.284241
 10
1125.140259
 20
-287.284454
 10
1125.140259
 20
-288.84549
 42
0.999763
 10
1125.141235
 20
-284.724396
 10
1125.140259
 20
-286.284943
 10
1114.463013
 20
-286.284302
 10
1118.677979
 20
-281.100281
 10
1117.9021
 20
-280.469391
 10
1113.17395
 20
-286.284271
 10
1111.370239
 20
-286.284241
 10
1102.266357
 20
-281.367615
  0
LWPOLYLINE
  5
93
100
AcDbEntity
  8
LAYER22
370
    25
390
0
  6
Continuous
 62
     2
100
AcDbPolyline
 90
       10
 70
     0
 10
1102.266235
 20
-240.873611
 10
1090.205688
 20
-233.911392
 10
1090.98584
 20
-232.559326
 42
1.0
 10
1088.925415
 20
-236.128693
 10
1089.705688
 20
-234.777115
 10
1098.953735
 20
-240.115845
 10
1092.71167
 20
-242.498749
 10
1093.067139
 20
-243.432831
 10
1100.069946
 20
-240.760849
 10
1102.266357
 20
-242.171463
  0
LWPOLYLINE
  5
94
100
AcDbEntity
  8
LAYER22
370
    25
390
0
  6
Continuous
 62
     2
100
AcDbPolyline
 90
       12
 70
     0
 10
1102.266235
 20
-240.873611
 10
1111.215454
 20
-236.254822
 10
1125.140259
 20
-236.254608
 10
1125.140259
 20
-234.693573
 42
-0.999763
 10
1125.141235
 20
-238.814667
 10
1125.140259
 20
-237.25412
 10
1114.463013
 20
-237.254776
 10
1118.677979
 20
-242.438797
 10
1117.9021
 20
-243.069656
 10
1113.17395
 20
-237.254791
 10
1111.370239
 20
-237.254822
 10
1102.266357
 20
-242.171463
  0
LWPOLYLINE
  5
95
100
AcDbEntity
  8
LAYER22
370
    25
390
0
  6
Continuous
 62
     2
100
AcDbPolyline
 90
        4
 70
     1
 10
1118.138672
 20
-278.269531
 10
1118.138672
 20
-245.269531
 10
1221.138672
 20
-245.269531
 10
1221.138672
 20
-278.269531
  0
LWPOLYLINE
  5
96
100
AcDbEntity
  8
LAYER22
370
    25
390
0
  6
Continuous
 62
     2
100
AcDbPolyline
 90
       10
 70
     1
 10
1118.138672
 20
-230.769531
 10
1118.138672
 20
-235.769531
 10
1125.138672
 20
-235.769531
 10
1125.138672
 20
-234.678711
 42
-1.0
 10
1125.138672
 20
-238.830078
 10
1125.138672
 20
-237.769531
 10
1118.138672
 20
-237.769531
 10
1118.138672
 20
-242.769531
 10
1243.138672
 20
-242.769531
 10
1243.138672
 20
-230.769531
  0
LWPOLYLINE
  5
97
100
AcDbEntity
  8
LAYER22
370
    25
390
0
  6
Continuous
 62
     2
100
AcDbPolyline
 90
       10
 70
     1
 10
1118.138672
 20
-280.769531
 10
1118.138672
 20
-285.769531
 10
1125.138672
 20
-285.769531
 10
1125.138672
 20
-284.678711
 42
-1.0
 10
1125.138672
 20
-288.830078
 10
1125.138672
 20
-287.769531
 10
1118.138672
 20
-287.769531
 10
1118.138672
 20
-292.769531
 10
1243.138672
 20
-292.769531
 10
1243.138672
 20
-280.769531
  0
LWPOLYLINE
  5
98
100
AcDbEntity
  8
LAYER22
370
    35
390
0
  6
Continuous
 62
     4
100
AcDbPolyline
 90
        6
 70
     0
 10
1243.138672
 20
-230.769531
 10
1243.138672
 20
-248.364258
 10
1221.138672
 20
-252.644531
 10
1221.138672
 20
-270.894531
 10
1243.138672
 20
-275.174805
 10
1243.138672
 20
-292.769531
  0
LWPOLYLINE
  5
99
100
AcDbEntity
  8
LAYER22
370
    25
390
0
  6
Continuous
 62
     2
100
AcDbPolyline
 90
        8
 70
     1
 10
1243.638672
 20
-232.331055
 10
1245.535156
 20
-232.331055
 42
-0.5275
 10
1245.535156
 20
-246.863281
 10
1243.833984
 20
-246.862793
 10
1243.833984
 20
-244.825195
 10
1245.535156
 20
-244.825195
 42
0.686995
 10
1245.535156
 20
-234.369141
 10
1243.638672
 20
-234.368652
  0
LWPOLYLINE
  5
9A
100
AcDbEntity
  8
LAYER22
370
    25
390
0
  6
Continuous
 62
     2
100
AcDbPolyline
 90
       14
 70
     1
 10
1237.730469
 20
-230.269531
 10
1243.638672
 20
-230.269531
 10
1243.638672
 20
-231.831055
 10
1245.535156
 20
-231.831055
 10
1245.535156
 20
-232.331055
 10
1243.638672
 20
-232.331055
 10
1243.638672
 20
-234.368652
 10
1245.535156
 20
-234.368652
 10
1245.535156
 20
-234.868652
 10
1243.638672
 20
-234.868652
 10
1243.638672
 20
-235.790527
 10
1243.138672
 20
-235.790527
 10
1243.138672
 20
-230.769531
 10
1237.730469
 20
-230.769531
  0
LWPOLYLINE
  5
9B
100
AcDbEntity
  8
LAYER22
370
    25
390
0
  6
Continuous
 62
     2
100
AcDbPolyline
 90
       12
 70
     1
 10
1243.638672
 20
-248.424805
 10
1243.638672
 20
-247.363281
 10
1245.535156
 20
-247.363281
 10
1245.535156
 20
-246.863281
 10
1243.638672
 20
-246.863281
 10
1243.638672
 20
-244.825684
 10
1245.535156
 20
-244.825684
 10
1245.535156
 20
-244.325684
 10
1243.638672
 20
-244.325684
 10
1243.638672
 20
-243.403809
 10
1243.138672
 20
-243.403809
 10
1243.138672
 20
-248.424805
  0
LWPOLYLINE
  5
9C
100
AcDbEntity
  8
LAYER22
370
    25
390
0
  6
Continuous
 62
     2
100
AcDbPolyline
 90
        8
 70
     1
 10
1243.638672
 20
-291.208008
 10
1245.535156
 20
-291.208008
 42
0.5275
 10
1245.535156
 20
-276.675781
 10
1243.833984
 20
-276.67627
 10
1243.833984
 20
-278.713867
 10
1245.535156
 20
-278.713867
 42
-0.686995
 10
1245.535156
 20
-289.169922
 10
1243.638672
 20
-289.17041
  0
LWPOLYLINE
  5
9D
100
AcDbEntity
  8
LAYER22
370
    25
390
0
  6
Continuous
 62
     2
100
AcDbPolyline
 90
       14
 70
     1
 10
1237.730469
 20
-293.269531
 10
1243.638672
 20
-293.269531
 10
1243.638672
 20
-291.708008
 10
1245.535156
 20
-291.708008
 10
1245.535156
 20
-291.208008
 10
1243.638672
 20
-291.208008
 10
1243.638672
 20
-289.17041
 10
1245.535156
 20
-289.17041
 10
1245.535156
 20
-288.67041
 10
1243.638672
 20
-288.67041
 10
1243.638672
 20
-287.748535
 10
1243.138672
 20
-287.748535
 10
1243.138672
 20
-292.769531
 10
1237.730469
 20
-292.769531
  0
LWPOLYLINE
  5
9E
100
AcDbEntity
  8
LAYER22
370
    25
390
0
  6
Continuous
 62
     2
100
AcDbPolyline
 90
       12
 70
     1
 10
1243.638672
 20
-275.114258
 10
1243.638672
 20
-276.175781
 10
1245.535156
 20
-276.175781
 10
1245.535156
 20
-276.675781
 10
1243.638672
 20
-276.675781
 10
1243.638672
 20
-278.713379
 10
1245.535156
 20
-278.713379
 10
1245.535156
 20
-279.213379
 10
1243.638672
 20
-279.213379
 10
1243.638672
 20
-280.135254
 10
1243.138672
 20
-280.135254
 10
1243.138672
 20
-275.114258
  0
LWPOLYLINE
  5
9F
100
AcDbEntity
  8
LAYER22
370
    25
390
0
  6
Continuous
 62
     2
100
AcDbPolyline
 90
        4
 70
     1
 10
-135.96875
 20
-278.269531
 10
-135.96875
 20
-245.269531
 10
-10.96875
 20
-245.269531
 10
-10.96875
 20
-278.269531
  0
LWPOLYLINE
  5
A0
100
AcDbEntity
  8
LAYER22
370
    25
390
0
  6
Continuous
 62
     2
100
AcDbPolyline
 90
       10
 70
     1
 10
-10.96875
 20
-230.769531
 10
-10.96875
 20
-235.769531
 10
-17.96875
 20
-235.769531
 10
-17.96875
 20
-234.678711
 42
1.0
 10
-17.96875
 20
-238.830078
 10
-17.96875
 20
-237.769531
 10
-10.96875
 20
-237.769531
 10
-10.96875
 20
-242.769531
 10
-135.96875
 20
-242.769531
 10
-135.96875
 20
-230.769531
  0
LWPOLYLINE
  5
A1
100
AcDbEntity
  8
LAYER22
370
    25
390
0
  6
Continuous
 62
     2
100
AcDbPolyline
 90
       10
 70
     1
 10
-10.96875
 20
-280.769531
 10
-10.96875
 20
-285.769531
 10
-17.96875
 20
-285.769531
 10
-17.96875
 20
-284.678711
 42
1.0
 10
-17.96875
 20
-288.830078
 10
-17.96875
 20
-287.769531
 10
-10.96875
 20
-287.769531
 10
-10.96875
 20
-292.769531
 10
-135.96875
 20
-292.769531
 10
-135.96875
 20
-280.769531
  0
LWPOLYLINE
  5
A2
100
AcDbEntity
  8
LAYER22
370
    35
390
0
  6
Continuous
 62
     4
100
AcDbPolyline
 90
        8
 70
     0
 10
1624.03125
 20
-292.769531
 10
1609.332031
 20
-292.769531
 10
1609.332031
 20
-275.174805
 10
1587.13916
 20
-270.993164
 10
1587.13916
 20
-252.546387
 10
1609.313477
 20
-248.266602
 10
1609.313477
 20
-230.269531
 10
1624.03125
 20
-230.269531
  0
LWPOLYLINE
  5
A3
100
AcDbEntity
  8
LAYER22
370
    18
390
0
  6
DASHED
 62
     1
100
AcDbPolyline
 90
        4
 70
     1
 10
-10.96875
 20
-245.269531
 10
1624.03125
 20
-245.269531
 10
1624.03125
 20
-278.269531
 10
-10.96875
 20
-278.269531
  0
LWPOLYLINE
  5
A4
100
AcDbEntity
  8
LAYER22
370
    13
390
0
  6
DASHDOT
 62
     5
100
AcDbPolyline
 90
        2
 70
     0
 10
-135.96875
 20
-261.769531
 10
1624.03125
 20
-261.769531
  0
LWPOLYLINE
  5
A5
100
AcDbEntity
  8
LAYER22
370
    25
390
0
  6
Continuous
 62
     2
100
AcDbPolyline
 90
       16
 70
     1
 10
545.515381
 20
-232.647934
 10
290.906677
 20
-85.643188
 10
288.406586
 20
-89.973267
 10
294.468689
 20
-93.473381
 10
295.014618
 20
-92.527863
 42
-1.0
 10
292.938385
 20
-96.123863
 10
293.468658
 20
-95.205414
 10
287.406555
 20
-91.705299
 10
284.906464
 20
-96.035378
 10
539.515198
 20
-243.040131
 10
542.015259
 20
-238.710052
 10
536.015747
 20
-235.246063
 10
535.485474
 20
-236.16452
 42
-1.035413
 10
537.561707
 20
-232.568527
 10
537.015808
 20
-233.514038
 10
543.01532
 20
-236.978012
  0
LWPOLYLINE
  5
A6
100
AcDbEntity
  8
LAYER22
370
    25
390
0
  6
Continuous
 62
     2
100
AcDbPolyline
 90
       16
 70
     1
 10
561.656494
 20
-232.646957
 10
816.265198
 20
-85.642212
 10
818.765259
 20
-89.97229
 10
812.703186
 20
-93.472404
 10
812.157227
 20
-92.526886
 42
1.0
 10
814.233521
 20
-96.122887
 10
813.703186
 20
-95.204437
 10
819.76532
 20
-91.704323
 10
822.265381
 20
-96.034401
 10
567.656677
 20
-243.039154
 10
565.156616
 20
-238.709076
 10
571.156128
 20
-235.245087
 10
571.686401
 20
-236.163544
 42
1.035413
 10
569.610168
 20
-232.567551
 10
570.156067
 20
-233.513062
 10
564.156555
 20
-236.977036
  0
LWPOLYLINE
  5
A7
100
AcDbEntity
  8
LAYER22
370
    25
390
0
  6
Continuous
 62
     2
100
AcDbPolyline
 90
       22
 70
     0
 10
830.335938
 20
-87.808594
 10
825.512695
 20
-87.808594
 10
813.452148
 20
-94.770996
 10
814.232422
 20
-96.123047
 42
-1.0
 10
812.171875
 20
-92.553711
 10
812.952148
 20
-93.905273
 10
822.200195
 20
-88.566406
 10
815.958008
 20
-86.183594
 10
816.313477
 20
-85.249512
 10
823.211914
 20
-87.881348
 10
824.383789
 20
-87.172852
 10
824.383789
 20
-83.507813
 10
822.359375
 20
-82.092773
 10
822.360352
 20
-80.139648
 10
822.857422
 20
-79.639648
 10
830.335938
 20
-79.639648
 10
830.335938
 20
-80.639648
 10
823.326172
 20
-80.639648
 10
823.326172
 20
-81.630859
 10
825.46875
 20
-83.329102
 10
825.46875
 20
-86.856934
 10
830.335938
 20
-86.856934
  0
LWPOLYLINE
  5
A8
100
AcDbEntity
  8
LAYER22
370
    25
390
0
  6
Continuous
 62
     2
100
AcDbPolyline
 90
       22
 70
     0
 10
830.335938
 20
-87.808594
 10
835.15918
 20
-87.808594
 10
847.219727
 20
-94.770996
 10
846.439453
 20
-96.123047
 42
1.0
 10
848.5
 20
-92.553711
 10
847.719727
 20
-93.905273
 10
838.47168
 20
-88.566406
 10
844.713867
 20
-86.183594
 10
844.358398
 20
-85.249512
 10
837.459961
 20
-87.881348
 10
836.288086
 20
-87.172852
 10
836.288086
 20
-83.507813
 10
838.3125
 20
-82.092773
 10
838.311523
 20
-80.139648
 10
837.814453
 20
-79.639648
 10
830.335938
 20
-79.639648
 10
830.335938
 20
-80.639648
 10
837.345703
 20
-80.639648
 10
837.345703
 20
-81.630859
 10
835.203125
 20
-83.329102
 10
835.203125
 20
-86.856934
 10
830.335938
 20
-86.856934
  0
LWPOLYLINE
  5
A9
100
AcDbEntity
  8
LAYER22
370
    25
390
0
  6
Continuous
 62
     2
100
AcDbPolyline
 90
       16
 70
     1
 10
1099.019287
 20
-232.646957
 10
844.410583
 20
-85.642212
 10
841.910522
 20
-89.97229
 10
847.972595
 20
-93.472404
 10
848.518555
 20
-92.526886
 42
-1.0
 10
846.442261
 20
-96.122887
 10
846.972595
 20
-95.204437
 10
840.910461
 20
-91.704323
 10
838.4104
 20
-96.034401
 10
1093.019165
 20
-243.039154
 10
1095.519165
 20
-238.709076
 10
1089.519653
 20
-235.245087
 10
1088.98938
 20
-236.163544
 42
-1.035413
 10
1091.065552
 20
-232.567551
 10
1090.519653
 20
-233.513062
 10
1096.519165
 20
-236.977036
  0
LWPOLYLINE
  5
AA
100
AcDbEntity
  8
LAYER22
370
    25
390
0
  6
Continuous
 62
     2
100
AcDbPolyline
 90
       16
 70
     1
 10
8.152571
 20
-290.891144
 10
262.761292
 20
-437.895874
 10
265.261383
 20
-433.565796
 10
259.19928
 20
-430.065674
 10
258.653351
 20
-431.0112
 42
-1.0
 10
260.729584
 20
-427.415192
 10
260.19931
 20
-428.333649
 10
266.261414
 20
-431.833771
 10
268.761505
 20
-427.503693
 10
14.152764
 20
-280.498932
 10
11.652684
 20
-284.82901
 10
17.652214
 20
-288.292999
 10
18.182505
 20
-287.374542
 42
-1.035413
 10
16.106264
 20
-290.970551
 10
16.652182
 20
-290.025024
 10
10.652652
 20
-286.561035
  0
LWPOLYLINE
  5
AB
100
AcDbEntity
  8
LAYER22
370
    25
390
0
  6
Continuous
 62
     2
100
AcDbPolyline
 90
       22
 70
     0
 10
276.835938
 20
-435.729492
 10
272.012695
 20
-435.729492
 10
259.952148
 20
-428.76709
 10
260.732422
 20
-427.415039
 42
1.0
 10
258.671875
 20
-430.984375
 10
259.452148
 20
-429.632813
 10
268.700195
 20
-434.97168
 10
262.458008
 20
-437.354492
 10
262.813477
 20
-438.288574
 10
269.711914
 20
-435.656738
 10
270.883789
 20
-436.365234
 10
270.883789
 20
-440.030273
 10
268.859375
 20
-441.445313
 10
268.860352
 20
-443.398438
 10
269.357422
 20
-443.898438
 10
276.835938
 20
-443.898438
 10
276.835938
 20
-442.898438
 10
269.826172
 20
-442.898438
 10
269.826172
 20
-441.907227
 10
271.96875
 20
-440.208984
 10
271.96875
 20
-436.681152
 10
276.835938
 20
-436.681152
  0
LWPOLYLINE
  5
AC
100
AcDbEntity
  8
LAYER22
370
    25
390
0
  6
Continuous
 62
     2
100
AcDbPolyline
 90
       22
 70
     0
 10
276.835938
 20
-435.729492
 10
281.65918
 20
-435.729492
 10
293.719727
 20
-428.76709
 10
292.939453
 20
-427.415039
 42
-1.0
 10
295.0
 20
-430.984375
 10
294.219727
 20
-429.632813
 10
284.97168
 20
-434.97168
 10
291.213867
 20
-437.354492
 10
290.858398
 20
-438.288574
 10
283.959961
 20
-435.656738
 10
282.788086
 20
-436.365234
 10
282.788086
 20
-440.030273
 10
284.8125
 20
-441.445313
 10
284.811523
 20
-443.398438
 10
284.314453
 20
-443.898438
 10
276.835938
 20
-443.898438
 10
276.835938
 20
-442.898438
 10
283.845703
 20
-442.898438
 10
283.845703
 20
-441.907227
 10
281.703125
 20
-440.208984
 10
281.703125
 20
-436.681152
 10
276.835938
 20
-436.681152
  0
LWPOLYLINE
  5
AD
100
AcDbEntity
  8
LAYER22
370
    25
390
0
  6
Continuous
 62
     2
100
AcDbPolyline
 90
       13
 70
     0
 10
553.585938
 20
-282.66626
 10
548.762695
 20
-282.66626
 10
536.702148
 20
-289.628662
 10
537.482422
 20
-290.980713
 42
-1.0
 10
535.421875
 20
-287.411377
 10
536.202148
 20
-288.762939
 10
545.450195
 20
-283.424072
 10
539.208008
 20
-281.04126
 10
539.563477
 20
-280.107178
 10
546.461914
 20
-282.739014
 10
547.633789
 20
-282.030518
 10
548.71875
 20
-281.7146
 10
553.585938
 20
-281.7146
  0
LWPOLYLINE
  5
AE
100
AcDbEntity
  8
LAYER22
370
    25
390
0
  6
Continuous
 62
     2
100
AcDbPolyline
 90
       13
 70
     0
 10
553.585938
 20
-282.66626
 10
558.40918
 20
-282.66626
 10
570.469727
 20
-289.628662
 10
569.689453
 20
-290.980713
 42
1.0
 10
571.75
 20
-287.411377
 10
570.969727
 20
-288.762939
 10
561.72168
 20
-283.424072
 10
567.963867
 20
-281.04126
 10
567.608398
 20
-280.107178
 10
560.709961
 20
-282.739014
 10
559.538086
 20
-282.030518
 10
558.453125
 20
-281.7146
 10
553.585938
 20
-281.7146
  0
LWPOLYLINE
  5
AF
100
AcDbEntity
  8
LAYER22
370
    25
390
0
  6
Continuous
 62
     2
100
AcDbPolyline
 90
       16
 70
     1
 10
545.515381
 20
-290.891144
 10
290.906677
 20
-437.895874
 10
288.406586
 20
-433.565796
 10
294.468689
 20
-430.065674
 10
295.014618
 20
-431.0112
 42
1.0
 10
292.938385
 20
-427.415192
 10
293.468658
 20
-428.333649
 10
287.406555
 20
-431.833771
 10
284.906464
 20
-427.503693
 10
539.515198
 20
-280.498932
 10
542.015259
 20
-284.82901
 10
536.015747
 20
-288.292999
 10
535.485474
 20
-287.374542
 42
1.035413
 10
537.561707
 20
-290.970551
 10
537.015808
 20
-290.025024
 10
543.01532
 20
-286.561035
  0
LWPOLYLINE
  5
B0
100
AcDbEntity
  8
LAYER22
370
    25
390
0
  6
Continuous
 62
     2
100
AcDbPolyline
 90
       16
 70
     1
 10
561.656494
 20
-290.89212
 10
816.265198
 20
-437.896851
 10
818.765259
 20
-433.566772
 10
812.703186
 20
-430.06665
 10
812.157227
 20
-431.012177
 42
-1.0
 10
814.233521
 20
-427.416168
 10
813.703186
 20
-428.334625
 10
819.76532
 20
-431.834747
 10
822.265381
 20
-427.504669
 10
567.656677
 20
-280.499908
 10
565.156616
 20
-284.829987
 10
571.156128
 20
-288.293976
 10
571.686401
 20
-287.375519
 42
-1.035413
 10
569.610168
 20
-290.971527
 10
570.156067
 20
-290.026001
 10
564.156555
 20
-286.562012
  0
LWPOLYLINE
  5
B1
100
AcDbEntity
  8
LAYER22
370
    25
390
0
  6
Continuous
 62
     2
100
AcDbPolyline
 90
       22
 70
     0
 10
830.335938
 20
-435.730469
 10
825.512695
 20
-435.730469
 10
813.452148
 20
-428.768066
 10
814.232422
 20
-427.416016
 42
1.0
 10
812.171875
 20
-430.985352
 10
812.952148
 20
-429.633789
 10
822.200195
 20
-434.972656
 10
815.958008
 20
-437.355469
 10
816.313477
 20
-438.289551
 10
823.211914
 20
-435.657715
 10
824.383789
 20
-436.366211
 10
824.383789
 20
-440.03125
 10
822.359375
 20
-441.446289
 10
822.360352
 20
-443.399414
 10
822.857422
 20
-443.899414
 10
830.335938
 20
-443.899414
 10
830.335938
 20
-442.899414
 10
823.326172
 20
-442.899414
 10
823.326172
 20
-441.908203
 10
825.46875
 20
-440.209961
 10
825.46875
 20
-436.682129
 10
830.335938
 20
-436.682129
  0
LWPOLYLINE
  5
B2
100
AcDbEntity
  8
LAYER22
370
    25
390
0
  6
Continuous
 62
     2
100
AcDbPolyline
 90
       22
 70
     0
 10
830.335938
 20
-435.730469
 10
835.15918
 20
-435.730469
 10
847.219727
 20
-428.768066
 10
846.439453
 20
-427.416016
 42
-1.0
 10
848.5
 20
-430.985352
 10
847.719727
 20
-429.633789
 10
838.47168
 20
-434.972656
 10
844.713867
 20
-437.355469
 10
844.358398
 20
-438.289551
 10
837.459961
 20
-435.657715
 10
836.288086
 20
-436.366211
 10
836.288086
 20
-440.03125
 10
838.3125
 20
-441.446289
 10
838.311523
 20
-443.399414
 10
837.814453
 20
-443.899414
 10
830.335938
 20
-443.899414
 10
830.335938
 20
-442.899414
 10
837.345703
 20
-442.899414
 10
837.345703
 20
-441.908203
 10
835.203125
 20
-440.209961
 10
835.203125
 20
-436.682129
 10
830.335938
 20
-436.682129
  0
LWPOLYLINE
  5
B3
100
AcDbEntity
  8
LAYER22
370
    25
390
0
  6
Continuous
 62
     2
100
AcDbPolyline
 90
       16
 70
     1
 10
1099.019287
 20
-290.89212
 10
844.410583
 20
-437.896851
 10
841.910522
 20
-433.566772
 10
847.972595
 20
-430.06665
 10
848.518555
 20
-431.012177
 42
1.0
 10
846.442261
 20
-427.416168
 10
846.972595
 20
-428.334625
 10
840.910461
 20
-431.834747
 10
838.4104
 20
-427.504669
 10
1093.019165
 20
-280.499908
 10
1095.519165
 20
-284.829987
 10
1089.519653
 20
-288.293976
 10
1088.98938
 20
-287.375519
 42
1.035413
 10
1091.065552
 20
-290.971527
 10
1090.519653
 20
-290.026001
 10
1096.519165
 20
-286.562012
  0
ENDSEC
  0
SECTION
  2
OBJECTS
  0
DICTIONARY
  5
19
100
AcDbDictionary
280
     0
281
     1
  3
ACAD_GROUP
350
1A
  3
ACAD_MLINESTYLE
350
1B
  3
ACAD_LAYOUT
350
1E
  3
ACAD_PLOTSETTINGS
350
22
  3
ACAD_PLOTSTYLENAME
350
1F
  3
ACAD_WIPEOUT_VARS
350
23
  0
DICTIONARY
  5
1A
102
{ACAD_REACTORS
330
19
102
}
100
AcDbDictionary
280
     0
281
     1
  0
DICTIONARY
  5
1B
102
{ACAD_REACTORS
330
19
102
}
100
AcDbDictionary
280
     0
281
     1
  3
Standard
350
1C
  0
MLINESTYLE
  5
1C
102
{ACAD_REACTORS
330
1B
102
}
100
AcDbMlineStyle
  2
Standard
 70
     0
  3

 62
     0
 51
90.0
 52
90.0
 71
     2
 49
0.5
 62
   256
  6
ByLayer
 49
-0.5
 62
   256
  6
ByLayer
  0
ACDBDICTIONARYWDFLT
  5
1F
102
{ACAD_REACTORS
330
19
102
}
100
AcDbDictionary
281
     1
  3
Normal
350
1D
100
AcDbDictionaryWithDefault
340
1D
  0
ACDBPLACEHOLDER
  5
1D
102
{ACAD_REACTORS
330
1F
102
}
  0
LAYOUT
  5
20
102
{ACAD_REACTORS
330
1E
102
}
100
AcDbPlotSettings
  1

  2

  4

  6

 40
0.0
 41
0.0
 42
0.0
 43
0.0
 44
0.0
 45
0.0
 46
0.0
 47
0.0
 48
0.0
 49
0.0
140
0.0
141
0.0
142
1.0
143
1.0
 70
  1024
 72
     0
 73
     0
 74
     0
  7

 75
     0
147
1.0
148
0.0
149
0.0
100
AcDbLayout
  1
Model
 70
     0
 71
     0
 10
0.0
 20
0.0
 11
0.0
 21
0.0
 12
0.0
 22
0.0
 32
0.0
 14
0.0
 24
0.0
 34
0.0
 15
0.0
 25
0.0
 35
0.0
146
0.0
 13
0.0
 23
0.0
 33
0.0
 16
0.0
 26
0.0
 36
0.0
 17
0.0
 27
0.0
 37
0.0
 76
     0
330
A
331
0
345
0
346
0
  0
LAYOUT
  5
21
102
{ACAD_REACTORS
330
1E
102
}
100
AcDbPlotSettings
  1

  2

  4

  6

 40
0.0
 41
0.0
 42
0.0
 43
0.0
 44
0.0
 45
0.0
 46
0.0
 47
0.0
 48
0.0
 49
0.0
140
0.0
141
0.0
142
1.0
143
1.0
 70
     0
 72
     0
 73
     0
 74
     0
  7

 75
     0
147
1.0
148
0.0
149
0.0
100
AcDbLayout
  1
Layout1
 70
     0
 71
     0
 10
0.0
 20
0.0
 11
0.0
 21
0.0
 12
0.0
 22
0.0
 32
0.0
 14
0.0
 24
0.0
 34
0.0
 15
0.0
 25
0.0
 35
0.0
146
0.0
 13
0.0
 23
0.0
 33
0.0
 16
0.0
 26
0.0
 36
0.0
 17
0.0
 27
0.0
 37
0.0
 76
     0
330
B
331
0
345
0
346
0
  0
DICTIONARY
  5
1E
102
{ACAD_REACTORS
330
19
102
}
100
AcDbDictionary
280
     0
281
     1
  3
Layout1
350
21
  3
Model
350
20
  0
DICTIONARY
  5
22
102
{ACAD_REACTORS
330
19
102
}
100
AcDbDictionary
280
     0
281
     1
  0
WIPEOUTVARIABLES
  5
23
100
AcDbWipeoutVariables
 70
     1
  0
ENDSEC
  0
EOF
