  0
SECTION
  2
HEADER
  9
$ACADVER
  1
AC1015
  9
$ACADMAINTVER
 70
     6
  9
$DWGCODEPAGE
  3
ANSI_1252
  9
$INSBASE
 10
0.0
 20
0.0
 30
0.0
  9
$EXTMIN
 10
1.000000E+20
 20
1.000000E+20
 30
1.000000E+20
  9
$EXTMAX
 10
-1.000000E+20
 20
-1.000000E+20
 30
-1.000000E+20
  9
$LIMMIN
 10
0.0
 20
0.0
  9
$LIMMAX
 10
0.0
 20
0.0
  9
$ORTHOMODE
 70
     0
  9
$REGENMODE
 70
     1
  9
$FILLMODE
 70
     1
  9
$QTEXTMODE
 70
     0
  9
$MIRRTEXT
 70
     1
  9
$LTSCALE
 40
50.0
  9
$ATTMODE
 70
     1
  9
$TEXTSIZE
 40
0.2
  9
$TRACEWID
 40
0.05
  9
$TEXTSTYLE
  7
Standard
  9
$CLAYER
  8
0
  9
$CELTYPE
  6
Continuous
  9
$CECOLOR
 62
   256
  9
$CELTSCALE
 40
1.0
  9
$DISPSILH
 70
     0
  9
$DIMSCALE
 40
1.0
  9
$DIMASZ
 40
0.18
  9
$DIMEXO
 40
0.0625
  9
$DIMDLI
 40
0.38
  9
$DIMRND
 40
0.0
  9
$DIMDLE
 40
0.0
  9
$DIMEXE
 40
0.18
  9
$DIMTP
 40
0.0
  9
$DIMTM
 40
0.0
  9
$DIMTXT
 40
0.18
  9
$DIMCEN
 40
0.09
  9
$DIMTSZ
 40
0.0
  9
$DIMTOL
 70
     0
  9
$DIMLIM
 70
     0
  9
$DIMTIH
 70
     1
  9
$DIMTOH
 70
     1
  9
$DIMSE1
 70
     0
  9
$DIMSE2
 70
     0
  9
$DIMTAD
 70
     0
  9
$DIMZIN
 70
     0
  9
$DIMBLK
  1

  9
$DIMASO
 70
     1
  9
$DIMSHO
 70
     1
  9
$DIMPOST
  1

  9
$DIMAPOST
  1

  9
$DIMALT
 70
     0
  9
$DIMALTD
 70
     2
  9
$DIMALTF
 40
25.4
  9
$DIMLFAC
 40
1.0
  9
$DIMTOFL
 70
     0
  9
$DIMTVP
 40
0.0
  9
$DIMTIX
 70
     0
  9
$DIMSOXD
 70
     0
  9
$DIMSAH
 70
     0
  9
$DIMBLK1
  1

  9
$DIMBLK2
  1

  9
$DIMSTYLE
  2
Standard
  9
$DIMCLRD
 70
     0
  9
$DIMCLRE
 70
     0
  9
$DIMCLRT
 70
     0
  9
$DIMTFAC
 40
1.0
  9
$DIMGAP
 40
0.09
  9
$DIMJUST
 70
     0
  9
$DIMSD1
 70
     0
  9
$DIMSD2
 70
     0
  9
$DIMTOLJ
 70
     1
  9
$DIMTZIN
 70
     0
  9
$DIMALTZ
 70
     0
  9
$DIMALTTZ
 70
     0
  9
$DIMUPT
 70
     0
  9
$DIMDEC
 70
     4
  9
$DIMTDEC
 70
     4
  9
$DIMALTU
 70
     2
  9
$DIMALTTD
 70
     2
  9
$DIMTXSTY
  7
Standard
  9
$DIMAUNIT
 70
     0
  9
$DIMADEC
 70
     0
  9
$DIMALTRND
 40
0.0
  9
$DIMAZIN
 70
     0
  9
$DIMDSEP
 70
     0
  9
$DIMATFIT
 70
     3
  9
$DIMFRAC
 70
     0
  9
$DIMLDRBLK
  1

  9
$DIMLUNIT
 70
     2
  9
$DIMLWD
 70
     0
  9
$DIMLWE
 70
     0
  9
$DIMTMOVE
 70
     0
  9
$LUNITS
 70
     2
  9
$LUPREC
 70
     4
  9
$SKETCHINC
 40
0.1
  9
$FILLETRAD
 40
0.0
  9
$AUNITS
 70
     0
  9
$AUPREC
 70
     0
  9
$MENU
  1
acad
  9
$ELEVATION
 40
0.0
  9
$PELEVATION
 40
0.0
  9
$THICKNESS
 40
0.0
  9
$LIMCHECK
 70
     0
  9
$CHAMFERA
 40
0.0
  9
$CHAMFERB
 40
0.0
  9
$CHAMFERC
 40
0.0
  9
$CHAMFERD
 40
0.0
  9
$SKPOLY
 70
     0
  9
$TDCREATE
 40
0.000000000
  9
$TDUCREATE
 40
0.000000000
  9
$TDUPDATE
 40
0.000000000
  9
$TDUUPDATE
 40
0.000000000
  9
$TDINDWG
 40
0.0000000000
  9
$TDUSRTIMER
 40
0.0000000000
  9
$USRTIMER
 70
     1
  9
$ANGBASE
 50
0.0
  9
$ANGDIR
 70
     0
  9
$PDMODE
 70
     0
  9
$PDSIZE
 40
0.0
  9
$PLINEWID
 40
0.0
  9
$SPLFRAME
 70
     0
  9
$SPLINETYPE
 70
     6
  9
$SPLINESEGS
 70
   120
  9
$HANDSEED
  5
AE
  9
$SURFTAB1
 70
     6
  9
$SURFTAB2
 70
     6
  9
$SURFTYPE
 70
     6
  9
$SURFU
 70
     6
  9
$SURFV
 70
     6
  9
$UCSBASE
  2

  9
$UCSNAME
  2

  9
$UCSORG
 10
0.0
 20
0.0
 30
0.0
  9
$UCSXDIR
 10
1.0
 20
0.0
 30
0.0
  9
$UCSYDIR
 10
0.0
 20
1.0
 30
0.0
  9
$UCSORTHOREF
  2

  9
$UCSORTHOVIEW
 70
     0
  9
$UCSORGTOP
 10
0.0
 20
0.0
 30
0.0
  9
$UCSORGBOTTOM
 10
0.0
 20
0.0
 30
0.0
  9
$UCSORGLEFT
 10
0.0
 20
0.0
 30
0.0
  9
$UCSORGRIGHT
 10
0.0
 20
0.0
 30
0.0
  9
$UCSORGFRONT
 10
0.0
 20
0.0
 30
0.0
  9
$UCSORGBACK
 10
0.0
 20
0.0
 30
0.0
  9
$PUCSBASE
  2

  9
$PUCSNAME
  2

  9
$PUCSORG
 10
0.0
 20
0.0
 30
0.0
  9
$PUCSXDIR
 10
1.0
 20
0.0
 30
0.0
  9
$PUCSYDIR
 10
0.0
 20
1.0
 30
0.0
  9
$PUCSORTHOREF
  2

  9
$PUCSORTHOVIEW
 70
     0
  9
$PUCSORGTOP
 10
0.0
 20
0.0
 30
0.0
  9
$PUCSORGBOTTOM
 10
0.0
 20
0.0
 30
0.0
  9
$PUCSORGLEFT
 10
0.0
 20
0.0
 30
0.0
  9
$PUCSORGRIGHT
 10
0.0
 20
0.0
 30
0.0
  9
$PUCSORGFRONT
 10
0.0
 20
0.0
 30
0.0
  9
$PUCSORGBACK
 10
0.0
 20
0.0
 30
0.0
  9
$USERI1
 70
 12345
  9
$USERI2
 70
     0
  9
$USERI3
 70
     0
  9
$USERI4
 70
     0
  9
$USERI5
 70
     0
  9
$USERR1
 40
0.0
  9
$USERR2
 40
0.0
  9
$USERR3
 40
0.0
  9
$USERR4
 40
0.0
  9
$USERR5
 40
0.0
  9
$WORLDVIEW
 70
     1
  9
$SHADEDGE
 70
     3
  9
$SHADEDIF
 70
    70
  9
$TILEMODE
 70
     1
  9
$MAXACTVP
 70
    16
  9
$PINSBASE
 10
0.0
 20
0.0
 30
0.0
  9
$PLIMCHECK
 70
     0
  9
$PEXTMIN
 10
1.000000E+20
 20
1.000000E+20
 30
1.000000E+20
  9
$PEXTMAX
 10
-1.000000E+20
 20
-1.000000E+20
 30
-1.000000E+20
  9
$PLIMMIN
 10
0.0
 20
0.0
  9
$PLIMMAX
 10
12.0
 20
9.0
  9
$UNITMODE
 70
     0
  9
$VISRETAIN
 70
     0
  9
$PLINEGEN
 70
     1
  9
$PSLTSCALE
 70
     0
  9
$TREEDEPTH
 70
  3020
  9
$CMLSTYLE
  2
Standard
  9
$CMLJUST
 70
     0
  9
$CMLSCALE
 40
1.0
  9
$PROXYGRAPHICS
 70
     0
  9
$MEASUREMENT
 70
     0
  9
$CELWEIGHT
370
     0
  9
$ENDCAPS
280
     0
  9
$JOINSTYLE
280
     0
  9
$LWDISPLAY
290
     0
  9
$INSUNITS
 70
     0
  9
$HYPERLINKBASE
  1

  9
$STYLESHEET
  1

  9
$XEDIT
290
     1
  9
$CEPSNTYPE
380
     0
  9
$PSTYLEMODE
290
     1
  9
$FINGERPRINTGUID
  2

  9
$VERSIONGUID
  2

  9
$EXTNAMES
290
     1
  9
$PSVPSCALE
 40
0.0
  0
ENDSEC
  0
SECTION
  2
CLASSES
  0
CLASS
  1
LWPOLYLINE
  2
AcDbPolyline
  3
AutoCAD 2000
 90
        0
280
     0
281
     1
  0
CLASS
  1
IMAGE
  2
AcDbRasterImage
  3
ISM
 90
      127
280
     0
281
     1
  0
CLASS
  1
OLE2FRAME
  2
AcDbOle2Frame
  3
AutoCAD 2000
 90
        0
280
     0
281
     1
  0
CLASS
  1
HATCH
  2
AcDbHatch
  3
AutoCAD 2000
 90
        0
280
     0
281
     1
  0
CLASS
  1
DICTIONARYVAR
  2
AcDbDictionaryVar
  3
AutoCAD 2000
 90
        0
280
     0
281
     0
  0
CLASS
  1
RASTERVARIABLES
  2
AcDbRasterVariables
  3
ISM
 90
        0
280
     0
281
     0
  0
CLASS
  1
IMAGEDEF
  2
AcDbRasterImageDef
  3
ISM
 90
        0
280
     0
281
     0
  0
CLASS
  1
IMAGEDEF_REACTOR
  2
AcDbRasterImageDefReactor
  3
ISM
 90
        1
280
     0
281
     0
  0
CLASS
  1
IDBUFFER
  2
AcDbIdBuffer
  3
AutoCAD 2000
 90
        0
280
     0
281
     0
  0
CLASS
  1
SPATIAL_FILTER
  2
AcDbSpatialFilter
  3
AutoCAD 2000
 90
        0
280
     0
281
     0
  0
CLASS
  1
XRECORD
  2
AcDbXrecord
  3
AutoCAD 2000
 90
        0
280
     0
281
     0
  0
CLASS
  1
SORTENTSTABLE
  2
AcDbSortentsTable
  3
AutoCAD 2000
 90
        0
280
     0
281
     0
  0
CLASS
  1
LAYER_INDEX
  2
AcDbLayerIndex
  3
AutoCAD 2000
 90
        0
280
     0
281
     0
  0
CLASS
  1
SPATIAL_INDEX
  2
AcDbSpatialIndex
  3
AutoCAD 2000
 90
        0
280
     0
281
     0
  0
CLASS
  1
OBJECT_PTR
  2
CAseDLPNTableRecord
  3
"ASE-LPNTableRecord"
 90
        1
280
     0
281
     0
  0
CLASS
  1
LAYOUT
  2
AcDbLayout
  3
AutoCAD 2000
 90
        0
280
     0
281
     0
  0
CLASS
  1
PLOTSETTINGS
  2
AcDbPlotSettings
  3
AutoCAD 2000
 90
        0
280
     0
281
     0
  0
CLASS
  1
ACDBDICTIONARYWDFLT
  2
AcDbDictionaryWithDefault
  3
AutoCAD 2000
 90
        0
280
     0
281
     0
  0
CLASS
  1
ACDBPLACEHOLDER
  2
AcDbPlaceHolder
  3
AutoCAD 2000
 90
        0
280
     0
281
     0
  0
CLASS
  1
VBA_PROJECT
  2
AcDbVbaProject
  3
acadvba
 90
        0
280
     0
281
     0
  0
CLASS
  1
WIPEOUT
  2
AcDbWipeout
  3
WipeOut|AutoCAD Express Tool|expresstools@autodesk.com
 90
      127
280
     0
281
     1
  0
CLASS
  1
WIPEOUTVARIABLES
  2
AcDbWipeoutVariables
  3
WipeOut|AutoCAD Express Tool|expresstools@autodesk.com
 90
        0
280
     0
281
     0
  0
CLASS
  1
RTEXT
  2
RText
  3
RText|AutoCAD Express Tool|expresstools@autodesk.com
 90
        0
280
     0
281
     1
  0
CLASS
  1
ARCALIGNEDTEXT
  2
AcDbArcAlignedText
  3
ATEXT|AutoCAD Express Tool|expresstools@autodesk.com
 90
        0
280
     0
281
     1
  0
ENDSEC
  0
SECTION
  2
TABLES
  0
TABLE
  2
VPORT
  5
7
100
AcDbSymbolTable
 70
     1
  0
VPORT
  5
15
100
AcDbSymbolTableRecord
100
AcDbViewportTableRecord
  2
*ACTIVE
 70
     0
 10
0.0
 20
0.0
 11
1.0
 21
1.0
 12
230.0
 22
-212.0
 13
0.0
 23
0.0
 14
1.0
 24
1.0
 15
0.0
 25
0.0
 16
0.0
 26
0.0
 36
1.0
 17
0.0
 27
0.0
 37
0.0
 40
2876.0
 41
0.688564
 42
50.0
 43
0.0
 44
0.0
 50
0.0
 51
0.0
 71
     0
 72
   100
 73
     1
 74
     1
 75
     0
 76
     0
 77
     0
 78
     0
281
     0
 65
     0
110
0.0
120
0.0
130
0.0
111
1.0
121
0.0
131
0.0
112
0.0
122
1.0
132
0.0
345
0
346
0
 79
     0
146
0.0
  0
ENDTAB
  0
TABLE
  2
LTYPE
  5
4
100
AcDbSymbolTable
 70
     7
  0
LTYPE
  5
11
100
AcDbSymbolTableRecord
100
AcDbLinetypeTableRecord
  2
ByBlock
 70
    64
  3

 72
    65
 73
     0
 40
0.0
  0
LTYPE
  5
12
100
AcDbSymbolTableRecord
100
AcDbLinetypeTableRecord
  2
ByLayer
 70
    64
  3

 72
    65
 73
     0
 40
0.0
  0
LTYPE
  5
13
100
AcDbSymbolTableRecord
100
AcDbLinetypeTableRecord
  2
Continuous
 70
    64
  3
Solid line
 72
    65
 73
     0
 40
0.0
  0
LTYPE
  5
24
100
AcDbSymbolTableRecord
100
AcDbLinetypeTableRecord
  2
DASHED
 70
    64
  3
Dashed __ __ __
 72
    65
 73
     2
 40
0.75
 49
0.5
 74
     0
 49
-0.25
 74
     0
  0
LTYPE
  5
25
100
AcDbSymbolTableRecord
100
AcDbLinetypeTableRecord
  2
DOT
 70
    64
  3
Dot . . . .
 72
    65
 73
     2
 40
0.25
 49
0.0
 74
     0
 49
-0.25
 74
     0
  0
LTYPE
  5
26
100
AcDbSymbolTableRecord
100
AcDbLinetypeTableRecord
  2
DASHDOT
 70
    64
  3
Dash dot __ . __ .
 72
    65
 73
     4
 40
1.0
 49
0.5
 74
     0
 49
-0.25
 74
     0
 49
0.0
 74
     0
 49
-0.25
 74
     0
  0
LTYPE
  5
27
100
AcDbSymbolTableRecord
100
AcDbLinetypeTableRecord
  2
DIVIDE
 70
    64
  3
Divide __ . . __ . .
 72
    65
 73
     6
 40
1.25
 49
0.5
 74
     0
 49
-0.25
 74
     0
 49
0.0
 74
     0
 49
-0.25
 74
     0
 49
0.0
 74
     0
 49
-0.25
 74
     0
  0
ENDTAB
  0
TABLE
  2
LAYER
  5
2
100
AcDbSymbolTable
 70
     3
  0
LAYER
  5
14
100
AcDbSymbolTableRecord
100
AcDbLayerTableRecord
  2
0
 70
     0
 62
     7
  6
Continuous
290
     1
370
    -3
390
1D
  0
LAYER
  5
29
100
AcDbSymbolTableRecord
100
AcDbLayerTableRecord
  2
LAYER01
 70
     0
 62
     7
  6
Continuous
290
     1
370
    -3
390
1D
  0
LAYER
  5
2B
100
AcDbSymbolTableRecord
100
AcDbLayerTableRecord
  2
LAYER22
 70
     0
 62
     7
  6
Continuous
290
     1
370
    -3
390
1D
  0
ENDTAB
  0
TABLE
  2
STYLE
  5
3
100
AcDbSymbolTable
 70
     1
  0
STYLE
  5
17
100
AcDbSymbolTableRecord
100
AcDbTextStyleTableRecord
  2
Standard
 70
     0
 40
0.0
 41
1.0
 50
0.0
 71
     0
 42
0.0
  3
txt
  4

  0
ENDTAB
  0
TABLE
  2
VIEW
  5
5
100
AcDbSymbolTable
 70
     0
  0
ENDTAB
  0
TABLE
  2
UCS
  5
6
100
AcDbSymbolTable
 70
     0
  0
ENDTAB
  0
TABLE
  2
APPID
  5
8
100
AcDbSymbolTable
 70
     1
  0
APPID
  5
16
100
AcDbSymbolTableRecord
100
AcDbRegAppTableRecord
  2
ACAD
 70
     0
  0
ENDTAB
  0
TABLE
  2
DIMSTYLE
  5
9
100
AcDbSymbolTable
 70
     1
100
AcDbDimStyleTable
 71
     0
  0
DIMSTYLE
105
18
100
AcDbSymbolTableRecord
100
AcDbDimStyleTableRecord
  2
Standard
 70
     0
  3

  4

 40
1.0
 41
0.18
 42
0.0625
 43
0.38
 44
0.18
 45
0.0
 46
0.0
 47
0.0
 48
0.0
 71
     0
 72
     0
 73
     1
 74
     1
 75
     0
 76
     0
 77
     0
 78
     0
 79
     0
140
0.18
141
0.09
142
0.0
143
25.4
144
1.0
145
0.0
146
1.0
147
0.09
148
0.0
170
     0
171
     2
172
     0
173
     0
174
     0
175
     0
176
     0
177
     0
178
     0
179
     0
271
     4
272
     4
273
     2
274
     2
275
     0
276
     0
277
     2
278
    46
279
     0
280
     0
281
     0
282
     0
283
     1
284
     0
285
     0
286
     0
288
     0
289
     3
340
17
341
0
342
0
343
0
344
0
371
    -2
372
    -2
  0
ENDTAB
  0
TABLE
  2
BLOCK_RECORD
  5
1
100
AcDbSymbolTable
 70
     0
  0
BLOCK_RECORD
  5
A
100
AcDbSymbolTableRecord
100
AcDbBlockTableRecord
  2
*MODEL_SPACE
340
20
  0
BLOCK_RECORD
  5
B
100
AcDbSymbolTableRecord
100
AcDbBlockTableRecord
  2
*PAPER_SPACE
340
21
  0
ENDTAB
  0
ENDSEC
  0
SECTION
  2
BLOCKS
  0
BLOCK
  5
D
100
AcDbEntity
  8
0
390
0
100
AcDbBlockBegin
  2
*MODEL_SPACE
 70
     0
 10
0.0
 20
0.0
 30
0.0
  3
*MODEL_SPACE
  1

  0
ENDBLK
  5
E
100
AcDbEntity
  8
0
390
0
100
AcDbBlockEnd
  0
BLOCK
  5
F
100
AcDbEntity
 67
     1
  8
0
390
0
100
AcDbBlockBegin
  2
*PAPER_SPACE
 70
     0
 10
0.0
 20
0.0
 30
0.0
  3
*PAPER_SPACE
  1

  0
ENDBLK
  5
10
100
AcDbEntity
 67
     1
  8
0
390
0
100
AcDbBlockEnd
  0
ENDSEC
  0
SECTION
  2
ENTITIES
  0
MTEXT
  5
28
100
AcDbEntity
  8
LAYER01
390
0
 62
     2
100
AcDbMText
 10
-528.0
 20
1157.0
 30
0.0
 40
11.25
 41
0.0
 71
     7
 72
     1
  1
UNO 6A
 11
1.0
 21
0.0
 31
0.0
 73
     1
 44
1.333333
  0
LWPOLYLINE
  5
2A
100
AcDbEntity
  8
LAYER22
370
    13
390
0
  6
Continuous
 62
     5
100
AcDbPolyline
 90
        2
 70
     0
 10
-450.0
 20
947.0
 10
-300.0
 20
947.0
  0
LWPOLYLINE
  5
2C
100
AcDbEntity
  8
LAYER22
370
    18
390
0
  6
Continuous
 62
     1
100
AcDbPolyline
 90
        2
 70
     0
 10
-450.000031
 20
949.5
 10
-450.000031
 20
939.5
  0
LWPOLYLINE
  5
2D
100
AcDbEntity
  8
LAYER22
370
    18
390
0
  6
Continuous
 62
     1
100
AcDbPolyline
 90
        2
 70
     0
 10
-300.000031
 20
949.5
 10
-300.000031
 20
939.5
  0
MTEXT
  5
2E
100
AcDbEntity
  8
LAYER22
390
0
 62
     2
100
AcDbMText
 10
-375.0
 20
951.166687
 30
0.0
 40
11.25
 41
0.0
 71
     8
 72
     1
  1
150
 11
1.0
 21
0.0
 31
0.0
 73
     1
 44
1.333333
  0
LWPOLYLINE
  5
2F
100
AcDbEntity
  8
LAYER22
370
    18
390
0
  6
Continuous
 62
     1
100
AcDbPolyline
 90
        4
 70
     1
 10
-450.0
 20
-1574.0
 10
-450.0
 20
1054.0
 10
-300.0
 20
1054.0
 10
-300.0
 20
-1574.0
  0
LWPOLYLINE
  5
30
100
AcDbEntity
  8
LAYER22
370
    18
390
0
  6
Continuous
 62
     1
100
AcDbPolyline
 90
        4
 70
     1
 10
-300.0
 20
-1574.0
 10
-300.0
 20
1054.0
 10
-270.0
 20
1054.0
 10
-270.0
 20
-1574.0
  0
LWPOLYLINE
  5
31
100
AcDbEntity
  8
LAYER22
370
    25
390
0
  6
Continuous
 62
     2
100
AcDbPolyline
 90
       23
 70
     0
 10
-375.0
 20
1106.0
 10
-365.662598
 20
1105.999512
 10
-365.662598
 20
1104.384766
 10
-356.072754
 20
1104.384766
 42
-0.414214
 10
-354.45752
 20
1102.769531
 10
-354.45752
 20
1080.056641
 10
-353.723633
 20
1075.895508
 42
-0.466313
 10
-355.314453
 20
1073.999878
 10
-366.016113
 20
1074.0
 42
-0.469821
 10
-367.603455
 20
1075.914185
 10
-366.823242
 20
1080.056641
 10
-365.813965
 20
1080.056641
 10
-365.813965
 20
1076.725586
 10
-365.107422
 20
1076.019043
 10
-359.555176
 20
1076.019043
 10
-358.848633
 20
1076.725586
 10
-358.848633
 20
1080.056641
 10
-356.476563
 20
1080.056641
 10
-356.476563
 20
1099.337402
 42
0.414214
 10
-359.504883
 20
1102.365723
 10
-368.589844
 20
1102.365723
 10
-368.589844
 20
1103.879883
 10
-375.0
 20
1103.879883
  0
LWPOLYLINE
  5
32
100
AcDbEntity
  8
LAYER22
370
    25
390
0
  6
Continuous
 62
     2
100
AcDbPolyline
 90
       23
 70
     0
 10
-375.0
 20
1106.0
 10
-384.337402
 20
1105.999512
 10
-384.337402
 20
1104.384766
 10
-393.927246
 20
1104.384766
 42
0.414214
 10
-395.54248
 20
1102.769531
 10
-395.54248
 20
1080.056641
 10
-396.276367
 20
1075.895508
 42
0.466313
 10
-394.685547
 20
1073.999878
 10
-383.983887
 20
1074.0
 42
0.469821
 10
-382.396545
 20
1075.914185
 10
-383.176758
 20
1080.056641
 10
-384.186035
 20
1080.056641
 10
-384.186035
 20
1076.725586
 10
-384.892578
 20
1076.019043
 10
-390.444824
 20
1076.019043
 10
-391.151367
 20
1076.725586
 10
-391.151367
 20
1080.056641
 10
-393.523438
 20
1080.056641
 10
-393.523438
 20
1099.337402
 42
-0.414214
 10
-390.495117
 20
1102.365723
 10
-381.410156
 20
1102.365723
 10
-381.410156
 20
1103.879883
 10
-375.0
 20
1103.879883
  0
LWPOLYLINE
  5
33
100
AcDbEntity
  8
LAYER22
370
    18
390
0
  6
Continuous
 62
     1
100
AcDbPolyline
 90
        6
 70
     1
 10
-370.000977
 20
1103.879883
 10
-379.999023
 20
1103.879883
 10
-377.041992
 20
1106.879883
 10
-377.041992
 20
1116.879883
 10
-373.041992
 20
1116.879883
 10
-373.041992
 20
1106.879883
  0
LWPOLYLINE
  5
34
100
AcDbEntity
  8
LAYER22
370
    18
390
0
  6
Continuous
 62
     1
100
AcDbPolyline
 90
        2
 70
     0
 10
-377.041992
 20
1106.879883
 10
-373.041992
 20
1106.879883
  0
LWPOLYLINE
  5
35
100
AcDbEntity
  8
LAYER22
370
    18
390
0
  6
Continuous
 62
     1
100
AcDbPolyline
 90
       22
 70
     0
 10
-377.041992
 20
1116.879883
 10
-373.191895
 20
1119.129883
 10
-376.749268
 20
1121.270508
 10
-373.487305
 20
1123.560303
 10
-376.433105
 20
1126.012207
 10
-373.803955
 20
1128.311035
 10
-376.125
 20
1130.634766
 10
-374.107178
 20
1132.860352
 10
-375.840088
 20
1134.905029
 10
-374.365479
 20
1136.732178
 10
-375.610107
 20
1138.355957
 10
-374.548096
 20
1139.473877
 10
-375.463379
 20
1140.557373
 10
-374.690186
 20
1141.602051
 10
-375.329346
 20
1142.570068
 10
-374.803955
 20
1143.311768
 10
-375.220947
 20
1144.192383
 10
-374.899414
 20
1144.743408
 10
-375.159424
 20
1145.116455
 10
-374.961182
 20
1145.66748
 10
-375.0979
 20
1146.039063
 10
-375.0
 20
1146.870117
  0
LWPOLYLINE
  5
36
100
AcDbEntity
  8
LAYER22
370
    18
390
0
  6
Continuous
 62
     1
100
AcDbPolyline
 90
        4
 70
     1
 10
-390.696777
 20
1100.246094
 10
-384.640137
 20
1100.246094
 10
-384.640137
 20
1076.019043
 10
-390.696777
 20
1076.019043
  0
LWPOLYLINE
  5
37
100
AcDbEntity
  8
LAYER22
370
    18
390
0
  6
Continuous
 62
     1
100
AcDbPolyline
 90
        4
 70
     1
 10
-384.640137
 20
1094.693848
 10
-365.359375
 20
1094.693848
 10
-365.359375
 20
1081.570801
 10
-384.640137
 20
1081.570801
  0
LWPOLYLINE
  5
38
100
AcDbEntity
  8
LAYER22
370
    18
390
0
  6
Continuous
 62
     1
100
AcDbPolyline
 90
        4
 70
     1
 10
-365.359375
 20
1100.246094
 10
-359.302734
 20
1100.246094
 10
-359.302734
 20
1076.019043
 10
-365.359375
 20
1076.019043
  0
LWPOLYLINE
  5
39
100
AcDbEntity
  8
LAYER22
370
    18
390
0
  6
Continuous
 62
     1
100
AcDbPolyline
 90
        4
 70
     1
 10
-369.952637
 20
1081.570801
 10
-369.952637
 20
1054.0
 10
-380.047363
 20
1054.0
 10
-380.047363
 20
1081.570801
  0
LWPOLYLINE
  5
3A
100
AcDbEntity
  8
LAYER22
370
    25
390
0
  6
Continuous
 62
     2
100
AcDbPolyline
 90
        4
 70
     1
 10
-353.0
 20
1074.0
 10
-353.0
 20
1106.0
 10
-253.0
 20
1106.0
 10
-253.0
 20
1074.0
  0
LWPOLYLINE
  5
3B
100
AcDbEntity
  8
LAYER22
370
    25
390
0
  6
Continuous
 62
     2
100
AcDbPolyline
 90
        4
 70
     1
 10
-497.0
 20
1074.0
 10
-497.0
 20
1106.0
 10
-397.0
 20
1106.0
 10
-397.0
 20
1074.0
  0
LWPOLYLINE
  5
3C
100
AcDbEntity
  8
LAYER22
370
    18
390
0
  6
Continuous
 62
     1
100
AcDbPolyline
 90
        4
 70
     1
 10
-480.0
 20
-1574.0
 10
-480.0
 20
1054.0
 10
-450.0
 20
1054.0
 10
-450.0
 20
-1574.0
  0
LWPOLYLINE
  5
3D
100
AcDbEntity
  8
LAYER22
370
    13
390
0
  6
DASHDOT
 62
     5
100
AcDbPolyline
 90
        2
 70
     0
 10
-375.0
 20
1106.0
 10
-375.0
 20
-1574.0
  0
LWPOLYLINE
  5
3E
100
AcDbEntity
  8
LAYER22
370
    18
390
0
  6
Continuous
 62
     1
100
AcDbPolyline
 90
        4
 70
     1
 10
-465.5
 20
-1574.0
 10
-284.5
 20
-1574.0
 10
-284.5
 20
-1594.0
 10
-465.5
 20
-1594.0
  0
LWPOLYLINE
  5
3F
100
AcDbEntity
  8
LAYER22
370
    18
390
0
  6
Continuous
 62
     1
100
AcDbPolyline
 90
        4
 70
     1
 10
-465.0
 20
1074.0
 10
-284.0
 20
1074.0
 10
-284.0
 20
1054.0
 10
-465.0
 20
1054.0
  0
LWPOLYLINE
  5
40
100
AcDbEntity
  8
LAYER22
370
    25
390
0
  6
Continuous
 62
     2
100
AcDbPolyline
 90
       16
 70
     1
 10
188.419785
 20
739.095398
 10
318.322205
 20
814.097839
 10
320.822296
 20
809.767761
 10
314.760162
 20
806.267639
 10
314.214264
 20
807.213135
 42
1.0
 10
316.290497
 20
803.617188
 10
315.760193
 20
804.535583
 10
321.822327
 20
808.035706
 10
324.322388
 20
803.705627
 10
194.419983
 20
728.703247
 10
191.919907
 20
733.033325
 10
197.919434
 20
736.497253
 10
198.449722
 20
735.578857
 42
1.035421
 10
196.373489
 20
739.174805
 10
196.919403
 20
738.229309
 10
190.919876
 20
734.76532
  0
LWPOLYLINE
  5
41
100
AcDbEntity
  8
LAYER22
370
    25
390
0
  6
Continuous
 62
     2
100
AcDbPolyline
 90
       22
 70
     0
 10
332.375122
 20
811.95813
 10
327.551392
 20
811.958069
 10
315.491455
 20
804.995422
 10
316.271729
 20
803.643738
 42
-1.0
 10
314.21109
 20
807.213135
 10
314.991425
 20
805.861389
 10
324.23941
 20
811.200439
 10
317.996674
 20
813.583008
 10
318.352631
 20
814.51709
 10
325.355591
 20
811.844971
 10
326.917603
 20
812.746826
 10
326.983948
 20
816.639404
 10
324.898956
 20
818.054382
 10
324.899414
 20
820.007385
 10
325.395996
 20
820.507385
 10
332.375
 20
820.507324
 10
332.375
 20
819.507385
 10
325.899414
 20
819.507446
 10
325.865265
 20
818.515869
 10
327.917542
 20
816.889282
 10
327.917603
 20
812.95813
 10
332.375122
 20
812.958069
  0
LWPOLYLINE
  5
42
100
AcDbEntity
  8
LAYER22
370
    25
390
0
  6
Continuous
 62
     2
100
AcDbPolyline
 90
       22
 70
     0
 10
332.375122
 20
811.95813
 10
337.198853
 20
811.958252
 10
349.259033
 20
804.996338
 10
348.47876
 20
803.644592
 42
1.0
 10
350.539673
 20
807.213989
 10
349.759003
 20
805.862183
 10
340.511383
 20
811.200867
 10
346.75351
 20
813.583618
 10
346.397064
 20
814.517761
 10
339.395142
 20
811.845398
 10
337.832642
 20
812.746948
 10
337.765686
 20
816.639587
 10
339.850616
 20
818.054749
 10
339.850586
 20
820.00769
 10
339.353516
 20
820.507629
 10
332.375
 20
820.507324
 10
332.375
 20
819.507385
 10
338.850586
 20
819.507874
 10
338.884796
 20
818.516235
 10
336.832581
 20
816.889648
 10
336.832642
 20
812.958313
 10
332.375122
 20
812.958069
  0
LWPOLYLINE
  5
43
100
AcDbEntity
  8
LAYER22
370
    25
390
0
  6
Continuous
 62
     2
100
AcDbPolyline
 90
       22
 70
     0
 10
180.331894
 20
730.896362
 10
185.155624
 20
730.896423
 10
197.215591
 20
737.85907
 10
196.435287
 20
739.210754
 42
-1.0
 10
198.495941
 20
735.641357
 10
197.715591
 20
736.993103
 10
188.467636
 20
731.654053
 10
194.710342
 20
729.271484
 10
194.354401
 20
728.337402
 10
187.351425
 20
731.009521
 10
185.789429
 20
730.107666
 10
185.723083
 20
726.215088
 10
187.808075
 20
724.80011
 10
187.807617
 20
722.847107
 10
187.311035
 20
722.347107
 10
180.332031
 20
722.347168
 10
180.332016
 20
723.347107
 10
186.807602
 20
723.347046
 10
186.841766
 20
724.338623
 10
184.78949
 20
725.96521
 10
184.789429
 20
729.896362
 10
180.331909
 20
729.896423
  0
LWPOLYLINE
  5
44
100
AcDbEntity
  8
LAYER22
370
    25
390
0
  6
Continuous
 62
     2
100
AcDbPolyline
 90
       22
 70
     0
 10
180.331894
 20
730.896362
 10
175.508163
 20
730.89624
 10
163.448013
 20
737.858154
 10
164.228256
 20
739.2099
 42
1.0
 10
162.167343
 20
735.640503
 10
162.948013
 20
736.99231
 10
172.195663
 20
731.653625
 10
165.953506
 20
729.270874
 10
166.309967
 20
728.336731
 10
173.311874
 20
731.009094
 10
174.87439
 20
730.107544
 10
174.941345
 20
726.214905
 10
172.856415
 20
724.799744
 10
172.856445
 20
722.846802
 10
173.353516
 20
722.346863
 10
180.332031
 20
722.347168
 10
180.332016
 20
723.347107
 10
173.85643
 20
723.346619
 10
173.822235
 20
724.338257
 10
175.874451
 20
725.964844
 10
175.87439
 20
729.896179
 10
180.331909
 20
729.896423
  0
LWPOLYLINE
  5
45
100
AcDbEntity
  8
LAYER22
370
    25
390
0
  6
Continuous
 62
     2
100
AcDbPolyline
 90
       11
 70
     0
 10
100.588379
 20
772.901367
 10
107.169922
 20
770.397827
 10
117.54541
 20
764.349121
 10
118.325684
 20
765.700806
 42
-1.0
 10
116.264999
 20
762.130737
 10
117.04541
 20
763.483154
 10
107.797852
 20
768.821899
 10
108.855957
 20
762.224731
 10
107.868652
 20
762.066284
 10
106.681641
 20
769.466187
 10
100.220703
 20
771.971313
  0
LWPOLYLINE
  5
46
100
AcDbEntity
  8
LAYER22
370
    25
390
0
  6
Continuous
 62
     2
100
AcDbPolyline
 90
       11
 70
     0
 10
100.588379
 20
772.901367
 10
96.250488
 20
774.240234
 10
96.250488
 20
785.414063
 10
97.811035
 20
785.414185
 42
1.0
 10
93.689941
 20
785.414429
 10
95.250488
 20
785.414185
 10
95.250488
 20
774.736206
 10
90.065918
 20
778.950928
 10
89.435059
 20
778.175171
 10
95.250488
 20
773.447266
 10
100.220703
 20
771.971313
  0
LWPOLYLINE
  5
47
100
AcDbEntity
  8
LAYER22
370
    18
390
0
  6
Continuous
 62
     1
100
AcDbPolyline
 90
        6
 70
     1
 10
101.765625
 20
811.493164
 10
101.765625
 20
801.495117
 10
98.765625
 20
804.452148
 10
88.765625
 20
804.452148
 10
88.765625
 20
808.452148
 10
98.765625
 20
808.452148
  0
LWPOLYLINE
  5
48
100
AcDbEntity
  8
LAYER22
370
    18
390
0
  6
Continuous
 62
     1
100
AcDbPolyline
 90
        2
 70
     0
 10
98.765625
 20
804.452148
 10
98.765625
 20
808.452148
  0
LWPOLYLINE
  5
49
100
AcDbEntity
  8
LAYER22
370
    18
390
0
  6
Continuous
 62
     1
100
AcDbPolyline
 90
       22
 70
     0
 10
88.765625
 20
804.452148
 10
86.515625
 20
808.302246
 10
84.375
 20
804.744873
 10
82.085205
 20
808.006836
 10
79.633301
 20
805.061035
 10
77.334473
 20
807.690186
 10
75.010742
 20
805.369141
 10
72.785156
 20
807.386963
 10
70.740479
 20
805.654053
 10
68.91333
 20
807.128662
 10
67.289551
 20
805.884033
 10
66.171631
 20
806.946045
 10
65.088135
 20
806.030762
 10
64.043457
 20
806.803955
 10
63.075439
 20
806.164795
 10
62.33374
 20
806.690186
 10
61.453125
 20
806.273193
 10
60.9021
 20
806.594727
 10
60.529053
 20
806.334717
 10
59.978027
 20
806.532959
 10
59.606445
 20
806.39624
 10
58.775391
 20
806.494141
  0
LWPOLYLINE
  5
4A
100
AcDbEntity
  8
LAYER22
370
    25
390
0
  6
Continuous
 62
     2
100
AcDbPolyline
 90
       16
 70
     1
 10
172.253342
 20
739.110229
 10
114.222885
 20
772.598572
 10
111.723755
 20
768.267883
 10
117.786636
 20
764.769165
 10
118.331917
 20
765.71405
 42
-1.0
 10
116.256836
 20
762.118225
 10
116.786987
 20
763.036865
 10
110.724106
 20
766.535645
 10
108.224976
 20
762.205017
 10
166.255432
 20
728.716736
 10
168.754562
 20
733.047363
 10
162.754272
 20
736.51001
 10
162.224182
 20
735.591431
 42
-1.035178
 10
164.299133
 20
739.187073
 10
163.753922
 20
738.242249
 10
169.754211
 20
734.779602
  0
LWPOLYLINE
  5
4B
100
AcDbEntity
  8
LAYER22
370
    18
390
0
  6
DASHED
 62
     1
100
AcDbPolyline
 90
        4
 70
     1
 10
244.363281
 20
780.414063
 10
244.363281
 20
786.414063
 10
268.363281
 20
786.414063
 10
268.363281
 20
780.414063
  0
LWPOLYLINE
  5
4C
100
AcDbEntity
  8
LAYER22
370
    18
390
0
  6
DASHED
 62
     1
100
AcDbPolyline
 90
        4
 70
     1
 10
249.863281
 20
780.414063
 10
262.863281
 20
780.414063
 10
262.863281
 20
762.414063
 10
249.863281
 20
762.414063
  0
LWPOLYLINE
  5
4D
100
AcDbEntity
  8
LAYER22
370
    18
390
0
  6
DASHED
 62
     1
100
AcDbPolyline
 90
        4
 70
     1
 10
244.363281
 20
756.414063
 10
244.363281
 20
762.414063
 10
268.363281
 20
762.414063
 10
268.363281
 20
756.414063
  0
CIRCLE
  5
4E
100
AcDbEntity
  8
LAYER22
390
0
  6
Continuous
 62
     1
100
AcDbCircle
 10
256.363281
 20
771.414063
 30
0.0
 40
6.0
  0
CIRCLE
  5
4F
100
AcDbEntity
  8
LAYER22
390
0
  6
Continuous
 62
     1
100
AcDbCircle
 10
256.363281
 20
771.414063
 30
0.0
 40
5.0
  0
LWPOLYLINE
  5
50
100
AcDbEntity
  8
LAYER22
370
    18
390
0
  6
DASHED
 62
     1
100
AcDbPolyline
 90
        2
 70
     0
 10
253.863281
 20
767.083984
 10
258.863281
 20
775.744263
  0
LWPOLYLINE
  5
51
100
AcDbEntity
  8
LAYER22
370
    25
390
0
  6
Continuous
 62
     2
100
AcDbPolyline
 90
       16
 70
     1
 10
476.334106
 20
739.095398
 10
346.431702
 20
814.097839
 10
343.93161
 20
809.767761
 10
349.993744
 20
806.267639
 10
350.539642
 20
807.213135
 42
-1.0
 10
348.463409
 20
803.617188
 10
348.993713
 20
804.535583
 10
342.93158
 20
808.035706
 10
340.431519
 20
803.705627
 10
470.333923
 20
728.703247
 10
472.834015
 20
733.033325
 10
466.834473
 20
736.497253
 10
466.304169
 20
735.578857
 42
-1.035421
 10
468.380432
 20
739.174805
 10
467.834503
 20
738.229309
 10
473.834045
 20
734.76532
  0
LWPOLYLINE
  5
52
100
AcDbEntity
  8
LAYER22
370
    25
390
0
  6
Continuous
 62
     2
100
AcDbPolyline
 90
       22
 70
     0
 10
484.421753
 20
730.897339
 10
489.245483
 20
730.8974
 10
501.30542
 20
737.860046
 10
500.525146
 20
739.211731
 42
-1.0
 10
502.585785
 20
735.642334
 10
501.80545
 20
736.99408
 10
492.557465
 20
731.655029
 10
498.800201
 20
729.272461
 10
498.444244
 20
728.338379
 10
491.441284
 20
731.010498
 10
489.879272
 20
730.108643
 10
489.812927
 20
726.216064
 10
491.897919
 20
724.801086
 10
491.897461
 20
722.848083
 10
491.400879
 20
722.348083
 10
484.421875
 20
722.348145
 10
484.421875
 20
723.348083
 10
490.897461
 20
723.348022
 10
490.93161
 20
724.3396
 10
488.879333
 20
725.966187
 10
488.879272
 20
729.897339
 10
484.421753
 20
729.8974
  0
LWPOLYLINE
  5
53
100
AcDbEntity
  8
LAYER22
370
    25
390
0
  6
Continuous
 62
     2
100
AcDbPolyline
 90
       22
 70
     0
 10
484.421753
 20
730.897339
 10
479.598022
 20
730.897217
 10
467.537842
 20
737.859131
 10
468.318115
 20
739.210876
 42
1.0
 10
466.257202
 20
735.641479
 10
467.037872
 20
736.993286
 10
476.285492
 20
731.654602
 10
470.043365
 20
729.271851
 10
470.399811
 20
728.337708
 10
477.401733
 20
731.010071
 10
478.964233
 20
730.108521
 10
479.031189
 20
726.215881
 10
476.946259
 20
724.80072
 10
476.946289
 20
722.847778
 10
477.443359
 20
722.347839
 10
484.421875
 20
722.348145
 10
484.421875
 20
723.348083
 10
477.946289
 20
723.347595
 10
477.912079
 20
724.339233
 10
479.964294
 20
725.96582
 10
479.964233
 20
729.897156
 10
484.421753
 20
729.8974
  0
LWPOLYLINE
  5
54
100
AcDbEntity
  8
LAYER22
370
    25
390
0
  6
Continuous
 62
     2
100
AcDbPolyline
 90
       16
 70
     1
 10
492.759644
 20
738.663269
 10
622.662048
 20
813.66571
 10
625.162109
 20
809.335632
 10
619.100037
 20
805.83551
 10
618.554077
 20
806.781006
 42
1.0
 10
620.63031
 20
803.185059
 10
620.100037
 20
804.103455
 10
626.16217
 20
807.603577
 10
628.662231
 20
803.273499
 10
498.759827
 20
728.271118
 10
496.259735
 20
732.601196
 10
502.259277
 20
736.065125
 10
502.789581
 20
735.146729
 42
1.035421
 10
500.713318
 20
738.742676
 10
501.259247
 20
737.79718
 10
495.259705
 20
734.333191
  0
LWPOLYLINE
  5
55
100
AcDbEntity
  8
LAYER22
370
    18
390
0
  6
DASHED
 62
     1
100
AcDbPolyline
 90
        4
 70
     1
 10
548.703125
 20
779.981934
 10
548.703125
 20
785.981934
 10
572.703125
 20
785.981934
 10
572.703125
 20
779.981934
  0
LWPOLYLINE
  5
56
100
AcDbEntity
  8
LAYER22
370
    18
390
0
  6
DASHED
 62
     1
100
AcDbPolyline
 90
        4
 70
     1
 10
554.203125
 20
779.981934
 10
567.203125
 20
779.981934
 10
567.203125
 20
761.981934
 10
554.203125
 20
761.981934
  0
LWPOLYLINE
  5
57
100
AcDbEntity
  8
LAYER22
370
    18
390
0
  6
DASHED
 62
     1
100
AcDbPolyline
 90
        4
 70
     1
 10
548.703125
 20
755.981934
 10
548.703125
 20
761.981934
 10
572.703125
 20
761.981934
 10
572.703125
 20
755.981934
  0
CIRCLE
  5
58
100
AcDbEntity
  8
LAYER22
390
0
  6
Continuous
 62
     1
100
AcDbCircle
 10
560.703125
 20
770.981934
 30
0.0
 40
6.0
  0
CIRCLE
  5
59
100
AcDbEntity
  8
LAYER22
390
0
  6
Continuous
 62
     1
100
AcDbCircle
 10
560.703125
 20
770.981934
 30
0.0
 40
5.0
  0
LWPOLYLINE
  5
5A
100
AcDbEntity
  8
LAYER22
370
    18
390
0
  6
DASHED
 62
     1
100
AcDbPolyline
 90
        2
 70
     0
 10
558.203125
 20
766.651855
 10
563.203125
 20
775.312134
  0
LWPOLYLINE
  5
5B
100
AcDbEntity
  8
LAYER22
370
    25
390
0
  6
Continuous
 62
     2
100
AcDbPolyline
 90
       22
 70
     0
 10
636.718872
 20
811.525513
 10
631.895142
 20
811.525452
 10
619.835205
 20
804.562805
 10
620.615479
 20
803.211121
 42
-1.0
 10
618.55481
 20
806.780518
 10
619.335205
 20
805.428772
 10
628.58313
 20
810.767822
 10
622.340454
 20
813.150391
 10
622.69635
 20
814.084473
 10
629.699341
 20
811.412354
 10
631.261353
 20
812.314209
 10
631.327698
 20
816.206787
 10
629.242737
 20
817.621765
 10
629.243164
 20
819.574768
 10
629.739746
 20
820.074768
 10
636.71875
 20
820.074707
 10
636.71875
 20
819.074768
 10
630.243164
 20
819.074829
 10
630.208984
 20
818.083252
 10
632.261292
 20
816.456665
 10
632.261353
 20
812.525513
 10
636.718872
 20
812.525452
  0
LWPOLYLINE
  5
5C
100
AcDbEntity
  8
LAYER22
370
    25
390
0
  6
Continuous
 62
     2
100
AcDbPolyline
 90
       22
 70
     0
 10
636.718872
 20
811.525513
 10
641.542603
 20
811.525635
 10
653.602783
 20
804.563721
 10
652.82251
 20
803.211975
 42
1.0
 10
654.883423
 20
806.781372
 10
654.102783
 20
805.429565
 10
644.855103
 20
810.76825
 10
651.09729
 20
813.151001
 10
650.740784
 20
814.085144
 10
643.738892
 20
811.412781
 10
642.176392
 20
812.314331
 10
642.109436
 20
816.20697
 10
644.194397
 20
817.622131
 10
644.194336
 20
819.575073
 10
643.697266
 20
820.075012
 10
636.71875
 20
820.074707
 10
636.71875
 20
819.074768
 10
643.194336
 20
819.075256
 10
643.228516
 20
818.083618
 10
641.176331
 20
816.457031
 10
641.176392
 20
812.525696
 10
636.718872
 20
812.525452
  0
LWPOLYLINE
  5
5D
100
AcDbEntity
  8
LAYER22
370
    25
390
0
  6
Continuous
 62
     2
100
AcDbPolyline
 90
       16
 70
     1
 10
708.809998
 20
780.191284
 10
650.779541
 20
813.679626
 10
648.280396
 20
809.348938
 10
654.343262
 20
805.85022
 10
654.88855
 20
806.795105
 42
-1.0
 10
652.813477
 20
803.19928
 10
653.343628
 20
804.11792
 10
647.280762
 20
807.616699
 10
644.781616
 20
803.286072
 10
702.812073
 20
769.797791
 10
705.311218
 20
774.128418
 10
699.310913
 20
777.591064
 10
698.780823
 20
776.672485
 42
-1.035178
 10
700.855774
 20
780.268127
 10
700.310547
 20
779.323303
 10
706.310852
 20
775.860657
  0
LWPOLYLINE
  5
5E
100
AcDbEntity
  8
LAYER22
370
    18
390
0
  6
Continuous
 62
     1
100
AcDbPolyline
 90
        6
 70
     1
 10
1062.765625
 20
766.399902
 10
1062.765625
 20
776.397949
 10
1065.765625
 20
773.440918
 10
1075.765625
 20
773.440918
 10
1075.765625
 20
769.440918
 10
1065.765625
 20
769.440918
  0
LWPOLYLINE
  5
5F
100
AcDbEntity
  8
LAYER22
370
    18
390
0
  6
Continuous
 62
     1
100
AcDbPolyline
 90
        2
 70
     0
 10
1065.765625
 20
773.440918
 10
1065.765625
 20
769.440918
  0
LWPOLYLINE
  5
60
100
AcDbEntity
  8
LAYER22
370
    18
390
0
  6
Continuous
 62
     1
100
AcDbPolyline
 90
       22
 70
     0
 10
1075.765625
 20
773.440918
 10
1078.015625
 20
769.59082
 10
1080.15625
 20
773.148193
 10
1082.446045
 20
769.88623
 10
1084.897949
 20
772.832031
 10
1087.196777
 20
770.202881
 10
1089.520508
 20
772.523926
 10
1091.746094
 20
770.506104
 10
1093.790771
 20
772.239014
 10
1095.61792
 20
770.764404
 10
1097.241699
 20
772.009033
 10
1098.359619
 20
770.947021
 10
1099.443115
 20
771.862305
 10
1100.487793
 20
771.089111
 10
1101.455811
 20
771.728271
 10
1102.19751
 20
771.202881
 10
1103.078125
 20
771.619873
 10
1103.62915
 20
771.29834
 10
1104.002197
 20
771.55835
 10
1104.553223
 20
771.360107
 10
1104.924805
 20
771.496826
 10
1105.755859
 20
771.398926
  0
LWPOLYLINE
  5
61
100
AcDbEntity
  8
LAYER22
370
    25
390
0
  6
Continuous
 62
     2
100
AcDbPolyline
 90
       18
 70
     0
 10
1062.765625
 20
771.398926
 10
1062.765625
 20
778.078125
 42
-0.268065
 10
1064.015625
 20
780.243103
 10
1071.59082
 20
784.616699
 10
1071.84082
 20
785.049805
 10
1071.84082
 20
787.098877
 10
1089.765625
 20
787.098877
 10
1089.765625
 20
785.098877
 10
1087.265625
 20
785.098877
 10
1087.265625
 20
785.69873
 10
1082.091797
 20
785.69873
 10
1082.091797
 20
778.999023
 10
1080.691895
 20
778.999023
 10
1080.691895
 20
785.69873
 10
1073.240723
 20
785.69873
 10
1073.240723
 20
782.79834
 10
1066.265625
 20
778.770996
 10
1066.265625
 20
771.398926
  0
LWPOLYLINE
  5
62
100
AcDbEntity
  8
LAYER22
370
    25
390
0
  6
Continuous
 62
     2
100
AcDbPolyline
 90
       18
 70
     0
 10
1062.765625
 20
771.398926
 10
1062.765625
 20
764.719727
 42
0.268065
 10
1064.015625
 20
762.554749
 10
1071.59082
 20
758.181152
 10
1071.84082
 20
757.748047
 10
1071.84082
 20
755.698975
 10
1089.765625
 20
755.698975
 10
1089.765625
 20
757.698975
 10
1087.265625
 20
757.698975
 10
1087.265625
 20
757.099121
 10
1082.091797
 20
757.099121
 10
1082.091797
 20
763.798828
 10
1080.691895
 20
763.798828
 10
1080.691895
 20
757.099121
 10
1073.240723
 20
757.099121
 10
1073.240723
 20
759.999512
 10
1066.265625
 20
764.026855
 10
1066.265625
 20
771.398926
  0
LWPOLYLINE
  5
63
100
AcDbEntity
  8
LAYER22
370
    25
390
0
  6
Continuous
 62
     2
100
AcDbPolyline
 90
       13
 70
     0
 10
845.0
 20
771.398926
 10
845.0
 20
781.221558
 10
851.083496
 20
784.765991
 42
0.767315
 10
850.833496
 20
785.698975
 10
838.024414
 20
785.698975
 10
838.024414
 20
785.098999
 10
835.524414
 20
785.098999
 10
835.524414
 20
787.098999
 10
855.125488
 20
787.098999
 42
-0.767332
 10
855.500488
 20
785.699463
 10
848.049805
 20
781.398071
 42
0.267954
 10
846.799744
 20
779.23291
 10
846.799805
 20
771.398926
  0
LWPOLYLINE
  5
64
100
AcDbEntity
  8
LAYER22
370
    25
390
0
  6
Continuous
 62
     2
100
AcDbPolyline
 90
       13
 70
     0
 10
845.0
 20
771.398926
 10
845.0
 20
761.576294
 10
851.083496
 20
758.03186
 42
-0.767315
 10
850.833496
 20
757.098877
 10
838.024414
 20
757.098877
 10
838.024414
 20
757.698853
 10
835.524414
 20
757.698853
 10
835.524414
 20
755.698853
 10
855.125488
 20
755.698853
 42
0.767332
 10
855.500488
 20
757.098389
 10
848.049805
 20
761.39978
 42
-0.267954
 10
846.799744
 20
763.564941
 10
846.799805
 20
771.398926
  0
LWPOLYLINE
  5
65
100
AcDbEntity
  8
LAYER22
370
    13
390
0
  6
DASHDOT
 62
     5
100
AcDbPolyline
 90
        2
 70
     0
 10
89.765625
 20
771.414063
 10
1089.765625
 20
771.414063
  0
LWPOLYLINE
  5
66
100
AcDbEntity
  8
LAYER22
370
    25
390
0
  6
Continuous
 62
     2
100
AcDbPolyline
 90
       10
 70
     1
 10
720.0
 20
783.898926
 10
845.0
 20
783.898926
 10
845.0
 20
758.898926
 10
720.0
 20
758.898926
 10
720.0
 20
770.398926
 10
726.927734
 20
770.398926
 10
726.927734
 20
769.338379
 42
1.035178
 10
726.927734
 20
773.489746
 10
726.927734
 20
772.398926
 10
720.0
 20
772.398926
  0
LWPOLYLINE
  5
67
100
AcDbEntity
  8
LAYER22
370
    25
390
0
  6
Continuous
 62
     2
100
AcDbPolyline
 90
       27
 70
     1
 10
698.782227
 20
776.672607
 42
-1.035231
 10
700.85791
 20
780.268188
 10
700.0625
 20
778.890259
 10
709.30957
 20
773.551392
 10
708.249023
 20
780.148071
 10
709.236328
 20
780.306763
 10
710.42627
 20
772.906738
 10
712.094238
 20
771.847168
 10
717.128906
 20
771.847168
 10
719.182129
 20
783.997437
 10
720.168457
 20
783.830811
 10
718.154785
 20
771.914063
 10
726.929688
 20
771.914063
 10
726.929688
 20
773.48999
 42
-1.035174
 10
726.929688
 20
769.338135
 10
726.929688
 20
770.914063
 10
718.154785
 20
770.914063
 10
720.168457
 20
758.997437
 10
719.182129
 20
758.830811
 10
717.140137
 20
770.914063
 10
711.844238
 20
770.914063
 10
711.594238
 20
770.981201
 10
709.92627
 20
772.040649
 10
702.923828
 20
769.368408
 10
702.567383
 20
770.302612
 10
708.810059
 20
772.685059
 10
699.503906
 20
778.058105
  0
LWPOLYLINE
  5
68
100
AcDbEntity
  8
LAYER22
370
    18
390
0
  6
DASHED
 62
     1
100
AcDbPolyline
 90
        4
 70
     1
 10
738.703125
 20
780.414063
 10
738.703125
 20
786.414063
 10
762.703125
 20
786.414063
 10
762.703125
 20
780.414063
  0
LWPOLYLINE
  5
69
100
AcDbEntity
  8
LAYER22
370
    18
390
0
  6
DASHED
 62
     1
100
AcDbPolyline
 90
        4
 70
     1
 10
744.203125
 20
780.414063
 10
757.203125
 20
780.414063
 10
757.203125
 20
762.414063
 10
744.203125
 20
762.414063
  0
LWPOLYLINE
  5
6A
100
AcDbEntity
  8
LAYER22
370
    18
390
0
  6
DASHED
 62
     1
100
AcDbPolyline
 90
        4
 70
     1
 10
738.703125
 20
756.414063
 10
738.703125
 20
762.414063
 10
762.703125
 20
762.414063
 10
762.703125
 20
756.414063
  0
CIRCLE
  5
6B
100
AcDbEntity
  8
LAYER22
390
0
  6
Continuous
 62
     1
100
AcDbCircle
 10
750.703125
 20
771.414063
 30
0.0
 40
6.0
  0
CIRCLE
  5
6C
100
AcDbEntity
  8
LAYER22
390
0
  6
Continuous
 62
     1
100
AcDbCircle
 10
750.703125
 20
771.414063
 30
0.0
 40
5.0
  0
LWPOLYLINE
  5
6D
100
AcDbEntity
  8
LAYER22
370
    18
390
0
  6
DASHED
 62
     1
100
AcDbPolyline
 90
        2
 70
     0
 10
748.203125
 20
767.083984
 10
753.203125
 20
775.744263
  0
LWPOLYLINE
  5
6E
100
AcDbEntity
  8
LAYER22
370
    18
390
0
  6
DASHED
 62
     1
100
AcDbPolyline
 90
        4
 70
     1
 10
803.703125
 20
780.414063
 10
803.703125
 20
786.414063
 10
827.703125
 20
786.414063
 10
827.703125
 20
780.414063
  0
LWPOLYLINE
  5
6F
100
AcDbEntity
  8
LAYER22
370
    18
390
0
  6
DASHED
 62
     1
100
AcDbPolyline
 90
        4
 70
     1
 10
809.203125
 20
780.414063
 10
822.203125
 20
780.414063
 10
822.203125
 20
762.414063
 10
809.203125
 20
762.414063
  0
LWPOLYLINE
  5
70
100
AcDbEntity
  8
LAYER22
370
    18
390
0
  6
DASHED
 62
     1
100
AcDbPolyline
 90
        4
 70
     1
 10
803.703125
 20
756.414063
 10
803.703125
 20
762.414063
 10
827.703125
 20
762.414063
 10
827.703125
 20
756.414063
  0
CIRCLE
  5
71
100
AcDbEntity
  8
LAYER22
390
0
  6
Continuous
 62
     1
100
AcDbCircle
 10
815.703125
 20
771.414063
 30
0.0
 40
6.0
  0
CIRCLE
  5
72
100
AcDbEntity
  8
LAYER22
390
0
  6
Continuous
 62
     1
100
AcDbCircle
 10
815.703125
 20
771.414063
 30
0.0
 40
5.0
  0
LWPOLYLINE
  5
73
100
AcDbEntity
  8
LAYER22
370
    18
390
0
  6
DASHED
 62
     1
100
AcDbPolyline
 90
        2
 70
     0
 10
813.203125
 20
767.083984
 10
818.203125
 20
775.744263
  0
LWPOLYLINE
  5
74
100
AcDbEntity
  8
LAYER22
370
    25
390
0
  6
Continuous
 62
     2
100
AcDbPolyline
 90
       10
 70
     1
 10
89.765625
 20
778.414063
 10
89.765625
 20
833.414063
 10
101.765625
 20
833.414063
 10
101.765625
 20
778.414063
 10
96.765625
 20
778.414063
 10
96.765625
 20
785.342773
 10
97.826172
 20
785.342773
 42
1.034934
 10
93.674805
 20
785.342773
 10
94.765625
 20
785.342773
 10
94.765625
 20
778.414063
  0
LWPOLYLINE
  5
75
100
AcDbEntity
  8
LAYER22
370
    18
390
0
  6
Continuous
 62
     1
100
AcDbPolyline
 90
        6
 70
     1
 10
101.765625
 20
811.493164
 10
101.765625
 20
801.495117
 10
98.765625
 20
804.452148
 10
88.765625
 20
804.452148
 10
88.765625
 20
808.452148
 10
98.765625
 20
808.452148
  0
LWPOLYLINE
  5
76
100
AcDbEntity
  8
LAYER22
370
    18
390
0
  6
Continuous
 62
     1
100
AcDbPolyline
 90
        2
 70
     0
 10
98.765625
 20
804.452148
 10
98.765625
 20
808.452148
  0
LWPOLYLINE
  5
77
100
AcDbEntity
  8
LAYER22
370
    18
390
0
  6
Continuous
 62
     1
100
AcDbPolyline
 90
       22
 70
     0
 10
88.765625
 20
804.452148
 10
86.515625
 20
808.302246
 10
84.375
 20
804.744873
 10
82.085205
 20
808.006836
 10
79.633301
 20
805.061035
 10
77.334473
 20
807.690186
 10
75.010742
 20
805.369141
 10
72.785156
 20
807.386963
 10
70.740479
 20
805.654053
 10
68.91333
 20
807.128662
 10
67.289551
 20
805.884033
 10
66.171631
 20
806.946045
 10
65.088135
 20
806.030762
 10
64.043457
 20
806.803955
 10
63.075439
 20
806.164795
 10
62.33374
 20
806.690186
 10
61.453125
 20
806.273193
 10
60.9021
 20
806.594727
 10
60.529053
 20
806.334717
 10
59.978027
 20
806.532959
 10
59.606445
 20
806.39624
 10
58.775391
 20
806.494141
  0
LWPOLYLINE
  5
78
100
AcDbEntity
  8
LAYER22
370
    18
390
0
  6
DASHED
 62
     1
100
AcDbPolyline
 90
        4
 70
     1
 10
95.75
 20
613.414063
 10
95.75
 20
619.414063
 10
119.75
 20
619.414063
 10
119.75
 20
613.414063
  0
LWPOLYLINE
  5
79
100
AcDbEntity
  8
LAYER22
370
    18
390
0
  6
DASHED
 62
     1
100
AcDbPolyline
 90
        4
 70
     1
 10
101.25
 20
613.414063
 10
114.25
 20
613.414063
 10
114.25
 20
595.414063
 10
101.25
 20
595.414063
  0
LWPOLYLINE
  5
7A
100
AcDbEntity
  8
LAYER22
370
    18
390
0
  6
DASHED
 62
     1
100
AcDbPolyline
 90
        4
 70
     1
 10
95.75
 20
589.414063
 10
95.75
 20
595.414063
 10
119.75
 20
595.414063
 10
119.75
 20
589.414063
  0
CIRCLE
  5
7B
100
AcDbEntity
  8
LAYER22
390
0
  6
Continuous
 62
     1
100
AcDbCircle
 10
107.75
 20
604.414063
 30
0.0
 40
6.0
  0
CIRCLE
  5
7C
100
AcDbEntity
  8
LAYER22
390
0
  6
Continuous
 62
     1
100
AcDbCircle
 10
107.75
 20
604.414063
 30
0.0
 40
5.0
  0
LWPOLYLINE
  5
7D
100
AcDbEntity
  8
LAYER22
370
    18
390
0
  6
DASHED
 62
     1
100
AcDbPolyline
 90
        2
 70
     0
 10
105.25
 20
600.083984
 10
110.25
 20
608.744263
  0
LWPOLYLINE
  5
7E
100
AcDbEntity
  8
LAYER22
370
    18
390
0
  6
Continuous
 62
     1
100
AcDbPolyline
 90
        6
 70
     1
 10
1062.765625
 20
599.399902
 10
1062.765625
 20
609.397949
 10
1065.765625
 20
606.440918
 10
1075.765625
 20
606.440918
 10
1075.765625
 20
602.440918
 10
1065.765625
 20
602.440918
  0
LWPOLYLINE
  5
7F
100
AcDbEntity
  8
LAYER22
370
    18
390
0
  6
Continuous
 62
     1
100
AcDbPolyline
 90
        2
 70
     0
 10
1065.765625
 20
606.440918
 10
1065.765625
 20
602.440918
  0
LWPOLYLINE
  5
80
100
AcDbEntity
  8
LAYER22
370
    18
390
0
  6
Continuous
 62
     1
100
AcDbPolyline
 90
       22
 70
     0
 10
1075.765625
 20
606.440918
 10
1078.015625
 20
602.59082
 10
1080.15625
 20
606.148193
 10
1082.446045
 20
602.88623
 10
1084.897949
 20
605.832031
 10
1087.196777
 20
603.202881
 10
1089.520508
 20
605.523926
 10
1091.746094
 20
603.506104
 10
1093.790771
 20
605.239014
 10
1095.61792
 20
603.764404
 10
1097.241699
 20
605.009033
 10
1098.359619
 20
603.947021
 10
1099.443115
 20
604.862305
 10
1100.487793
 20
604.089111
 10
1101.455811
 20
604.728271
 10
1102.19751
 20
604.202881
 10
1103.078125
 20
604.619873
 10
1103.62915
 20
604.29834
 10
1104.002197
 20
604.55835
 10
1104.553223
 20
604.360107
 10
1104.924805
 20
604.496826
 10
1105.755859
 20
604.398926
  0
LWPOLYLINE
  5
81
100
AcDbEntity
  8
LAYER22
370
    25
390
0
  6
Continuous
 62
     2
100
AcDbPolyline
 90
       18
 70
     0
 10
1062.765625
 20
604.398926
 10
1062.765625
 20
611.078125
 42
-0.268065
 10
1064.015625
 20
613.243103
 10
1071.59082
 20
617.616699
 10
1071.84082
 20
618.049805
 10
1071.84082
 20
620.098877
 10
1089.765625
 20
620.098877
 10
1089.765625
 20
618.098877
 10
1087.265625
 20
618.098877
 10
1087.265625
 20
618.69873
 10
1082.091797
 20
618.69873
 10
1082.091797
 20
611.999023
 10
1080.691895
 20
611.999023
 10
1080.691895
 20
618.69873
 10
1073.240723
 20
618.69873
 10
1073.240723
 20
615.79834
 10
1066.265625
 20
611.770996
 10
1066.265625
 20
604.398926
  0
LWPOLYLINE
  5
82
100
AcDbEntity
  8
LAYER22
370
    25
390
0
  6
Continuous
 62
     2
100
AcDbPolyline
 90
       18
 70
     0
 10
1062.765625
 20
604.398926
 10
1062.765625
 20
597.719727
 42
0.268065
 10
1064.015625
 20
595.554749
 10
1071.59082
 20
591.181152
 10
1071.84082
 20
590.748047
 10
1071.84082
 20
588.698975
 10
1089.765625
 20
588.698975
 10
1089.765625
 20
590.698975
 10
1087.265625
 20
590.698975
 10
1087.265625
 20
590.099121
 10
1082.091797
 20
590.099121
 10
1082.091797
 20
596.798828
 10
1080.691895
 20
596.798828
 10
1080.691895
 20
590.099121
 10
1073.240723
 20
590.099121
 10
1073.240723
 20
592.999512
 10
1066.265625
 20
597.026855
 10
1066.265625
 20
604.398926
  0
LWPOLYLINE
  5
83
100
AcDbEntity
  8
LAYER22
370
    25
390
0
  6
Continuous
 62
     2
100
AcDbPolyline
 90
       13
 70
     0
 10
277.0
 20
604.398926
 10
277.0
 20
614.221558
 10
283.083496
 20
617.765991
 42
0.767315
 10
282.833496
 20
618.698975
 10
270.024414
 20
618.698975
 10
270.024414
 20
618.098999
 10
267.524414
 20
618.098999
 10
267.524414
 20
620.098999
 10
287.125488
 20
620.098999
 42
-0.767332
 10
287.500488
 20
618.699463
 10
280.049805
 20
614.398071
 42
0.267954
 10
278.799713
 20
612.23291
 10
278.799805
 20
604.398926
  0
LWPOLYLINE
  5
84
100
AcDbEntity
  8
LAYER22
370
    25
390
0
  6
Continuous
 62
     2
100
AcDbPolyline
 90
       13
 70
     0
 10
277.0
 20
604.398926
 10
277.0
 20
594.576294
 10
283.083496
 20
591.03186
 42
-0.767315
 10
282.833496
 20
590.098877
 10
270.024414
 20
590.098877
 10
270.024414
 20
590.698853
 10
267.524414
 20
590.698853
 10
267.524414
 20
588.698853
 10
287.125488
 20
588.698853
 42
0.767332
 10
287.500488
 20
590.098389
 10
280.049805
 20
594.39978
 42
-0.267954
 10
278.799713
 20
596.564941
 10
278.799805
 20
604.398926
  0
LWPOLYLINE
  5
85
100
AcDbEntity
  8
LAYER22
370
    13
390
0
  6
DASHDOT
 62
     5
100
AcDbPolyline
 90
        2
 70
     0
 10
89.765625
 20
604.414063
 10
1089.765625
 20
604.414063
  0
LWPOLYLINE
  5
86
100
AcDbEntity
  8
LAYER22
370
    25
390
0
  6
Continuous
 62
     2
100
AcDbPolyline
 90
       10
 70
     1
 10
152.0
 20
616.898926
 10
277.0
 20
616.898926
 10
277.0
 20
591.898926
 10
152.0
 20
591.898926
 10
152.0
 20
603.398926
 10
158.927734
 20
603.398926
 10
158.927734
 20
602.338379
 42
1.035178
 10
158.927734
 20
606.489746
 10
158.927734
 20
605.398926
 10
152.0
 20
605.398926
  0
LWPOLYLINE
  5
87
100
AcDbEntity
  8
LAYER22
370
    18
390
0
  6
DASHED
 62
     1
100
AcDbPolyline
 90
        4
 70
     1
 10
170.703125
 20
613.414063
 10
170.703125
 20
619.414063
 10
194.703125
 20
619.414063
 10
194.703125
 20
613.414063
  0
LWPOLYLINE
  5
88
100
AcDbEntity
  8
LAYER22
370
    18
390
0
  6
DASHED
 62
     1
100
AcDbPolyline
 90
        4
 70
     1
 10
176.203125
 20
613.414063
 10
189.203125
 20
613.414063
 10
189.203125
 20
595.414063
 10
176.203125
 20
595.414063
  0
LWPOLYLINE
  5
89
100
AcDbEntity
  8
LAYER22
370
    18
390
0
  6
DASHED
 62
     1
100
AcDbPolyline
 90
        4
 70
     1
 10
170.703125
 20
589.414063
 10
170.703125
 20
595.414063
 10
194.703125
 20
595.414063
 10
194.703125
 20
589.414063
  0
CIRCLE
  5
8A
100
AcDbEntity
  8
LAYER22
390
0
  6
Continuous
 62
     1
100
AcDbCircle
 10
182.703125
 20
604.414063
 30
0.0
 40
6.0
  0
CIRCLE
  5
8B
100
AcDbEntity
  8
LAYER22
390
0
  6
Continuous
 62
     1
100
AcDbCircle
 10
182.703125
 20
604.414063
 30
0.0
 40
5.0
  0
LWPOLYLINE
  5
8C
100
AcDbEntity
  8
LAYER22
370
    18
390
0
  6
DASHED
 62
     1
100
AcDbPolyline
 90
        2
 70
     0
 10
180.203125
 20
600.083984
 10
185.203125
 20
608.744263
  0
LWPOLYLINE
  5
8D
100
AcDbEntity
  8
LAYER22
370
    18
390
0
  6
DASHED
 62
     1
100
AcDbPolyline
 90
        4
 70
     1
 10
235.703125
 20
613.414063
 10
235.703125
 20
619.414063
 10
259.703125
 20
619.414063
 10
259.703125
 20
613.414063
  0
LWPOLYLINE
  5
8E
100
AcDbEntity
  8
LAYER22
370
    18
390
0
  6
DASHED
 62
     1
100
AcDbPolyline
 90
        4
 70
     1
 10
241.203125
 20
613.414063
 10
254.203125
 20
613.414063
 10
254.203125
 20
595.414063
 10
241.203125
 20
595.414063
  0
LWPOLYLINE
  5
8F
100
AcDbEntity
  8
LAYER22
370
    18
390
0
  6
DASHED
 62
     1
100
AcDbPolyline
 90
        4
 70
     1
 10
235.703125
 20
589.414063
 10
235.703125
 20
595.414063
 10
259.703125
 20
595.414063
 10
259.703125
 20
589.414063
  0
CIRCLE
  5
90
100
AcDbEntity
  8
LAYER22
390
0
  6
Continuous
 62
     1
100
AcDbCircle
 10
247.703125
 20
604.414063
 30
0.0
 40
6.0
  0
CIRCLE
  5
91
100
AcDbEntity
  8
LAYER22
390
0
  6
Continuous
 62
     1
100
AcDbCircle
 10
247.703125
 20
604.414063
 30
0.0
 40
5.0
  0
LWPOLYLINE
  5
92
100
AcDbEntity
  8
LAYER22
370
    18
390
0
  6
DASHED
 62
     1
100
AcDbPolyline
 90
        2
 70
     0
 10
245.203125
 20
600.083984
 10
250.203125
 20
608.744263
  0
LWPOLYLINE
  5
93
100
AcDbEntity
  8
LAYER22
370
    25
390
0
  6
Continuous
 62
     2
100
AcDbPolyline
 90
       21
 70
     0
 10
113.794922
 20
683.091797
 10
108.28125
 20
683.091797
 10
108.28125
 20
672.414063
 10
109.841797
 20
672.413574
 42
-0.999763
 10
105.720703
 20
672.413574
 10
107.28125
 20
672.413574
 10
107.28125
 20
682.364746
 10
101.782227
 20
679.264893
 10
101.151367
 20
680.040771
 10
108.329102
 20
684.380859
 10
108.329102
 20
688.046143
 10
106.304688
 20
689.461182
 10
106.305664
 20
691.414063
 10
106.802734
 20
691.914063
 10
113.78125
 20
691.914063
 10
113.78125
 20
690.914063
 10
107.271484
 20
690.914063
 10
107.271484
 20
689.922607
 10
109.414063
 20
688.224365
 10
109.414063
 20
684.380859
 10
113.794922
 20
684.380859
  0
LWPOLYLINE
  5
94
100
AcDbEntity
  8
LAYER22
370
    25
390
0
  6
Continuous
 62
     2
100
AcDbPolyline
 90
       21
 70
     0
 10
113.767578
 20
683.091797
 10
119.28125
 20
683.091797
 10
119.28125
 20
672.414063
 10
117.720703
 20
672.413574
 42
0.999763
 10
121.841797
 20
672.413574
 10
120.28125
 20
672.413574
 10
120.28125
 20
682.364746
 10
125.780273
 20
679.264893
 10
126.411133
 20
680.040771
 10
119.233398
 20
684.380859
 10
119.233398
 20
688.046143
 10
121.257813
 20
689.461182
 10
121.256836
 20
691.414063
 10
120.759766
 20
691.914063
 10
113.78125
 20
691.914063
 10
113.78125
 20
690.914063
 10
120.291016
 20
690.914063
 10
120.291016
 20
689.922607
 10
118.148438
 20
688.224365
 10
118.148438
 20
684.380859
 10
113.767578
 20
684.380859
  0
LWPOLYLINE
  5
95
100
AcDbEntity
  8
LAYER22
370
    25
390
0
  6
Continuous
 62
     2
100
AcDbPolyline
 90
       16
 70
     1
 10
101.765625
 20
529.414063
 10
101.765625
 20
679.414063
 10
106.765625
 20
679.414063
 10
106.765625
 20
672.414063
 10
105.673828
 20
672.414063
 42
1.0
 10
109.826172
 20
672.414063
 10
108.765625
 20
672.414063
 10
108.765625
 20
679.414063
 10
113.765625
 20
679.414063
 10
113.765625
 20
529.414063
 10
108.765625
 20
529.414063
 10
108.765625
 20
536.341797
 10
109.826172
 20
536.341797
 42
1.035421
 10
105.673828
 20
536.341797
 10
106.765625
 20
536.341797
 10
106.765625
 20
529.414063
  0
LWPOLYLINE
  5
96
100
AcDbEntity
  8
LAYER22
370
    25
390
0
  6
Continuous
 62
     2
100
AcDbPolyline
 90
       21
 70
     0
 10
125.794922
 20
525.736328
 10
120.28125
 20
525.736328
 10
120.28125
 20
536.414063
 10
121.841797
 20
536.414551
 42
0.999763
 10
117.720703
 20
536.414551
 10
119.28125
 20
536.414551
 10
119.28125
 20
526.463379
 10
113.782227
 20
529.563232
 10
113.151367
 20
528.787354
 10
120.329102
 20
524.447266
 10
120.329102
 20
520.781982
 10
118.304688
 20
519.366943
 10
118.305664
 20
517.414063
 10
118.802734
 20
516.914063
 10
125.78125
 20
516.914063
 10
125.78125
 20
517.914063
 10
119.271484
 20
517.914063
 10
119.271484
 20
518.905518
 10
121.414063
 20
520.60376
 10
121.414063
 20
524.447266
 10
125.794922
 20
524.447266
  0
LWPOLYLINE
  5
97
100
AcDbEntity
  8
LAYER22
370
    25
390
0
  6
Continuous
 62
     2
100
AcDbPolyline
 90
       21
 70
     0
 10
125.767578
 20
525.736328
 10
131.28125
 20
525.736328
 10
131.28125
 20
536.414063
 10
129.720703
 20
536.414551
 42
-0.999763
 10
133.841797
 20
536.414551
 10
132.28125
 20
536.414551
 10
132.28125
 20
526.463379
 10
137.780273
 20
529.563232
 10
138.411133
 20
528.787354
 10
131.233398
 20
524.447266
 10
131.233398
 20
520.781982
 10
133.257813
 20
519.366943
 10
133.256836
 20
517.414063
 10
132.759766
 20
516.914063
 10
125.78125
 20
516.914063
 10
125.78125
 20
517.914063
 10
132.291016
 20
517.914063
 10
132.291016
 20
518.905518
 10
130.148438
 20
520.60376
 10
130.148438
 20
524.447266
 10
125.767578
 20
524.447266
  0
LWPOLYLINE
  5
98
100
AcDbEntity
  8
LAYER22
370
    25
390
0
  6
Continuous
 62
     2
100
AcDbPolyline
 90
       16
 70
     1
 10
113.765625
 20
529.414063
 10
113.765625
 20
679.414063
 10
118.765625
 20
679.414063
 10
118.765625
 20
672.414063
 10
117.673828
 20
672.414063
 42
1.0
 10
121.826172
 20
672.414063
 10
120.765625
 20
672.414063
 10
120.765625
 20
679.414063
 10
125.765625
 20
679.414063
 10
125.765625
 20
529.414063
 10
120.765625
 20
529.414063
 10
120.765625
 20
536.341797
 10
121.826172
 20
536.341797
 42
1.035421
 10
117.673828
 20
536.341797
 10
118.765625
 20
536.341797
 10
118.765625
 20
529.414063
  0
LWPOLYLINE
  5
99
100
AcDbEntity
  8
LAYER22
370
    18
390
0
  6
DASHED
 62
     1
100
AcDbPolyline
 90
        4
 70
     1
 10
119.75
 20
613.414063
 10
119.75
 20
619.414063
 10
143.75
 20
619.414063
 10
143.75
 20
613.414063
  0
LWPOLYLINE
  5
9A
100
AcDbEntity
  8
LAYER22
370
    18
390
0
  6
DASHED
 62
     1
100
AcDbPolyline
 90
        4
 70
     1
 10
125.25
 20
613.414063
 10
138.25
 20
613.414063
 10
138.25
 20
595.414063
 10
125.25
 20
595.414063
  0
LWPOLYLINE
  5
9B
100
AcDbEntity
  8
LAYER22
370
    18
390
0
  6
DASHED
 62
     1
100
AcDbPolyline
 90
        4
 70
     1
 10
119.75
 20
589.414063
 10
119.75
 20
595.414063
 10
143.75
 20
595.414063
 10
143.75
 20
589.414063
  0
CIRCLE
  5
9C
100
AcDbEntity
  8
LAYER22
390
0
  6
Continuous
 62
     1
100
AcDbCircle
 10
131.75
 20
604.414063
 30
0.0
 40
6.0
  0
CIRCLE
  5
9D
100
AcDbEntity
  8
LAYER22
390
0
  6
Continuous
 62
     1
100
AcDbCircle
 10
131.75
 20
604.414063
 30
0.0
 40
5.0
  0
LWPOLYLINE
  5
9E
100
AcDbEntity
  8
LAYER22
370
    18
390
0
  6
DASHED
 62
     1
100
AcDbPolyline
 90
        2
 70
     0
 10
129.25
 20
600.083984
 10
134.25
 20
608.744263
  0
LWPOLYLINE
  5
9F
100
AcDbEntity
  8
LAYER22
370
    25
390
0
  6
Continuous
 62
     2
100
AcDbPolyline
 90
       16
 70
     1
 10
125.765625
 20
529.414063
 10
125.765625
 20
679.414063
 10
130.765625
 20
679.414063
 10
130.765625
 20
672.414063
 10
129.673828
 20
672.414063
 42
1.0
 10
133.826172
 20
672.414063
 10
132.765625
 20
672.414063
 10
132.765625
 20
679.414063
 10
137.765625
 20
679.414063
 10
137.765625
 20
529.414063
 10
132.765625
 20
529.414063
 10
132.765625
 20
536.341797
 10
133.826172
 20
536.341797
 42
1.035421
 10
129.673828
 20
536.341797
 10
130.765625
 20
536.341797
 10
130.765625
 20
529.414063
  0
LWPOLYLINE
  5
A0
100
AcDbEntity
  8
LAYER22
370
    25
390
0
  6
Continuous
 62
     2
100
AcDbPolyline
 90
       16
 70
     1
 10
137.765625
 20
612.414063
 10
137.765625
 20
679.414063
 10
142.765625
 20
679.414063
 10
142.765625
 20
672.414063
 10
141.674683
 20
672.414063
 42
1.0
 10
145.826294
 20
672.414063
 10
144.765625
 20
672.414063
 10
144.765625
 20
679.414063
 10
149.765625
 20
679.414063
 10
149.765625
 20
612.414063
 10
144.765625
 20
612.414063
 10
144.765625
 20
619.341797
 10
145.826172
 20
619.341797
 42
1.035178
 10
141.674805
 20
619.341797
 10
142.765625
 20
619.341797
 10
142.765625
 20
612.414063
  0
LWPOLYLINE
  5
A1
100
AcDbEntity
  8
LAYER22
370
    25
390
0
  6
Continuous
 62
     2
100
AcDbPolyline
 90
       21
 70
     0
 10
137.794922
 20
683.091797
 10
132.28125
 20
683.091797
 10
132.28125
 20
672.414063
 10
133.841797
 20
672.413574
 42
-0.999763
 10
129.720703
 20
672.413574
 10
131.28125
 20
672.413574
 10
131.28125
 20
682.364746
 10
125.782227
 20
679.264893
 10
125.151367
 20
680.040771
 10
132.329102
 20
684.380859
 10
132.329102
 20
688.046143
 10
130.304688
 20
689.461182
 10
130.305664
 20
691.414063
 10
130.802734
 20
691.914063
 10
137.78125
 20
691.914063
 10
137.78125
 20
690.914063
 10
131.271484
 20
690.914063
 10
131.271484
 20
689.922607
 10
133.414063
 20
688.224365
 10
133.414063
 20
684.380859
 10
137.794922
 20
684.380859
  0
LWPOLYLINE
  5
A2
100
AcDbEntity
  8
LAYER22
370
    25
390
0
  6
Continuous
 62
     2
100
AcDbPolyline
 90
       21
 70
     0
 10
137.767578
 20
683.091797
 10
143.28125
 20
683.091797
 10
143.28125
 20
672.414063
 10
141.720703
 20
672.413574
 42
0.999763
 10
145.841797
 20
672.413574
 10
144.28125
 20
672.413574
 10
144.28125
 20
682.364746
 10
149.780273
 20
679.264893
 10
150.411133
 20
680.040771
 10
143.233398
 20
684.380859
 10
143.233398
 20
688.046143
 10
145.257813
 20
689.461182
 10
145.256836
 20
691.414063
 10
144.759766
 20
691.914063
 10
137.78125
 20
691.914063
 10
137.78125
 20
690.914063
 10
144.291016
 20
690.914063
 10
144.291016
 20
689.922607
 10
142.148438
 20
688.224365
 10
142.148438
 20
684.380859
 10
137.767578
 20
684.380859
  0
LWPOLYLINE
  5
A3
100
AcDbEntity
  8
LAYER22
370
    25
390
0
  6
Continuous
 62
     2
100
AcDbPolyline
 90
       16
 70
     1
 10
89.765625
 20
529.414063
 10
89.765625
 20
596.414063
 10
94.765625
 20
596.414063
 10
94.765625
 20
589.414063
 10
93.674683
 20
589.414063
 42
1.0
 10
97.826294
 20
589.414063
 10
96.765625
 20
589.414063
 10
96.765625
 20
596.414063
 10
101.765625
 20
596.414063
 10
101.765625
 20
529.414063
 10
96.765625
 20
529.414063
 10
96.765625
 20
536.341797
 10
97.826172
 20
536.341797
 42
1.035178
 10
93.674805
 20
536.341797
 10
94.765625
 20
536.341797
 10
94.765625
 20
529.414063
  0
LWPOLYLINE
  5
A4
100
AcDbEntity
  8
LAYER22
370
    25
390
0
  6
Continuous
 62
     2
100
AcDbPolyline
 90
       21
 70
     0
 10
101.779297
 20
525.736328
 10
96.265625
 20
525.736328
 10
96.265625
 20
536.414063
 10
97.826172
 20
536.414551
 42
0.999763
 10
93.705078
 20
536.414551
 10
95.265625
 20
536.414551
 10
95.265625
 20
526.463379
 10
89.766602
 20
529.563232
 10
89.135742
 20
528.787354
 10
96.313477
 20
524.447266
 10
96.313477
 20
520.781982
 10
94.289063
 20
519.366943
 10
94.290039
 20
517.414063
 10
94.787109
 20
516.914063
 10
101.765625
 20
516.914063
 10
101.765625
 20
517.914063
 10
95.255859
 20
517.914063
 10
95.255859
 20
518.905518
 10
97.398438
 20
520.60376
 10
97.398438
 20
524.447266
 10
101.779297
 20
524.447266
  0
LWPOLYLINE
  5
A5
100
AcDbEntity
  8
LAYER22
370
    25
390
0
  6
Continuous
 62
     2
100
AcDbPolyline
 90
       21
 70
     0
 10
101.751953
 20
525.736328
 10
107.265625
 20
525.736328
 10
107.265625
 20
536.414063
 10
105.705078
 20
536.414551
 42
-0.999763
 10
109.826172
 20
536.414551
 10
108.265625
 20
536.414551
 10
108.265625
 20
526.463379
 10
113.764648
 20
529.563232
 10
114.395508
 20
528.787354
 10
107.217773
 20
524.447266
 10
107.217773
 20
520.781982
 10
109.242188
 20
519.366943
 10
109.241211
 20
517.414063
 10
108.744141
 20
516.914063
 10
101.765625
 20
516.914063
 10
101.765625
 20
517.914063
 10
108.275391
 20
517.914063
 10
108.275391
 20
518.905518
 10
106.132813
 20
520.60376
 10
106.132813
 20
524.447266
 10
101.751953
 20
524.447266
  0
LWPOLYLINE
  5
A6
100
AcDbEntity
  8
LAYER22
370
    25
390
0
  6
Continuous
 62
     2
100
AcDbPolyline
 90
       14
 70
     1
 10
144.234375
 20
604.846924
 10
149.12793
 20
604.846924
 10
151.181641
 20
616.997314
 10
152.167969
 20
616.830566
 10
150.154297
 20
604.913818
 10
158.928711
 20
604.913818
 10
158.928711
 20
606.489746
 42
-1.035174
 10
158.928711
 20
602.337891
 10
158.928711
 20
603.913818
 10
150.154297
 20
603.913818
 10
152.167969
 20
591.99707
 10
151.181641
 20
591.830566
 10
149.138672
 20
603.913818
 10
143.234375
 20
603.913818
  0
LWPOLYLINE
  5
A7
100
AcDbEntity
  8
LAYER22
370
    25
390
0
  6
Continuous
 62
     2
100
AcDbPolyline
 90
       14
 70
     1
 10
141.673828
 20
619.342041
 42
-1.03523
 10
145.826157
 20
619.341797
 10
144.234375
 20
619.341797
 10
144.234375
 20
608.664063
 10
149.417969
 20
612.880859
 10
150.048828
 20
612.105225
 10
144.234375
 20
607.374756
 10
144.234375
 20
604.846924
 10
143.234375
 20
603.913818
 10
143.234375
 20
607.374756
 10
137.419922
 20
612.102783
 10
138.050781
 20
612.878662
 10
143.234375
 20
608.663574
 10
143.234375
 20
619.342041
  0
LWPOLYLINE
  5
A8
100
AcDbEntity
  8
LAYER22
370
    25
390
0
  6
Continuous
 62
     2
100
AcDbPolyline
 90
       10
 70
     0
 10
95.264648
 20
604.414063
 10
95.264648
 20
608.166016
 10
89.334961
 20
610.565674
 10
89.709961
 20
611.492432
 10
95.263672
 20
609.245117
 10
95.263672
 20
618.618896
 10
93.681152
 20
618.618896
 42
-1.035169
 10
97.833496
 20
618.618896
 10
96.264648
 20
618.618896
 10
96.263672
 20
604.414063
  0
LWPOLYLINE
  5
A9
100
AcDbEntity
  8
LAYER22
370
    25
390
0
  6
Continuous
 62
     2
100
AcDbPolyline
 90
       10
 70
     0
 10
95.264648
 20
604.414063
 10
95.264648
 20
599.938843
 10
89.334961
 20
597.539307
 10
89.709961
 20
596.612305
 10
95.263672
 20
598.859741
 10
95.263672
 20
589.48584
 10
93.681152
 20
589.48584
 42
1.035169
 10
97.833496
 20
589.48584
 10
96.264648
 20
589.48584
 10
96.263672
 20
604.414063
  0
LWPOLYLINE
  5
AA
100
AcDbEntity
  8
LAYER22
370
    25
390
0
  6
Continuous
 62
     2
100
AcDbPolyline
 90
       10
 70
     1
 10
89.765625
 20
611.414063
 10
89.765625
 20
666.414063
 10
101.765625
 20
666.414063
 10
101.765625
 20
611.414063
 10
96.765625
 20
611.414063
 10
96.765625
 20
618.342773
 10
97.826172
 20
618.342773
 42
1.034934
 10
93.674805
 20
618.342773
 10
94.765625
 20
618.342773
 10
94.765625
 20
611.414063
  0
LWPOLYLINE
  5
AB
100
AcDbEntity
  8
LAYER22
370
    18
390
0
  6
Continuous
 62
     1
100
AcDbPolyline
 90
        6
 70
     1
 10
101.765625
 20
644.493164
 10
101.765625
 20
634.495117
 10
98.765625
 20
637.452148
 10
88.765625
 20
637.452148
 10
88.765625
 20
641.452148
 10
98.765625
 20
641.452148
  0
LWPOLYLINE
  5
AC
100
AcDbEntity
  8
LAYER22
370
    18
390
0
  6
Continuous
 62
     1
100
AcDbPolyline
 90
        2
 70
     0
 10
98.765625
 20
637.452148
 10
98.765625
 20
641.452148
  0
LWPOLYLINE
  5
AD
100
AcDbEntity
  8
LAYER22
370
    18
390
0
  6
Continuous
 62
     1
100
AcDbPolyline
 90
       22
 70
     0
 10
88.765625
 20
637.452148
 10
86.515625
 20
641.302246
 10
84.375
 20
637.744873
 10
82.085205
 20
641.006836
 10
79.633301
 20
638.061035
 10
77.334473
 20
640.690186
 10
75.010742
 20
638.369141
 10
72.785156
 20
640.386963
 10
70.740479
 20
638.654053
 10
68.91333
 20
640.128662
 10
67.289551
 20
638.884033
 10
66.171631
 20
639.946045
 10
65.088135
 20
639.030762
 10
64.043457
 20
639.803955
 10
63.075439
 20
639.164795
 10
62.33374
 20
639.690186
 10
61.453125
 20
639.273193
 10
60.9021
 20
639.594727
 10
60.529053
 20
639.334717
 10
59.978027
 20
639.532959
 10
59.606445
 20
639.39624
 10
58.775391
 20
639.494141
  0
ENDSEC
  0
SECTION
  2
OBJECTS
  0
DICTIONARY
  5
19
100
AcDbDictionary
280
     0
281
     1
  3
ACAD_GROUP
350
1A
  3
ACAD_MLINESTYLE
350
1B
  3
ACAD_LAYOUT
350
1E
  3
ACAD_PLOTSETTINGS
350
22
  3
ACAD_PLOTSTYLENAME
350
1F
  3
ACAD_WIPEOUT_VARS
350
23
  0
DICTIONARY
  5
1A
102
{ACAD_REACTORS
330
19
102
}
100
AcDbDictionary
280
     0
281
     1
  0
DICTIONARY
  5
1B
102
{ACAD_REACTORS
330
19
102
}
100
AcDbDictionary
280
     0
281
     1
  3
Standard
350
1C
  0
MLINESTYLE
  5
1C
102
{ACAD_REACTORS
330
1B
102
}
100
AcDbMlineStyle
  2
Standard
 70
     0
  3

 62
     0
 51
90.0
 52
90.0
 71
     2
 49
0.5
 62
   256
  6
ByLayer
 49
-0.5
 62
   256
  6
ByLayer
  0
ACDBDICTIONARYWDFLT
  5
1F
102
{ACAD_REACTORS
330
19
102
}
100
AcDbDictionary
281
     1
  3
Normal
350
1D
100
AcDbDictionaryWithDefault
340
1D
  0
ACDBPLACEHOLDER
  5
1D
102
{ACAD_REACTORS
330
1F
102
}
  0
LAYOUT
  5
20
102
{ACAD_REACTORS
330
1E
102
}
100
AcDbPlotSettings
  1

  2

  4

  6

 40
0.0
 41
0.0
 42
0.0
 43
0.0
 44
0.0
 45
0.0
 46
0.0
 47
0.0
 48
0.0
 49
0.0
140
0.0
141
0.0
142
1.0
143
1.0
 70
  1024
 72
     0
 73
     0
 74
     0
  7

 75
     0
147
1.0
148
0.0
149
0.0
100
AcDbLayout
  1
Model
 70
     0
 71
     0
 10
0.0
 20
0.0
 11
0.0
 21
0.0
 12
0.0
 22
0.0
 32
0.0
 14
0.0
 24
0.0
 34
0.0
 15
0.0
 25
0.0
 35
0.0
146
0.0
 13
0.0
 23
0.0
 33
0.0
 16
0.0
 26
0.0
 36
0.0
 17
0.0
 27
0.0
 37
0.0
 76
     0
330
A
331
0
345
0
346
0
  0
LAYOUT
  5
21
102
{ACAD_REACTORS
330
1E
102
}
100
AcDbPlotSettings
  1

  2

  4

  6

 40
0.0
 41
0.0
 42
0.0
 43
0.0
 44
0.0
 45
0.0
 46
0.0
 47
0.0
 48
0.0
 49
0.0
140
0.0
141
0.0
142
1.0
143
1.0
 70
     0
 72
     0
 73
     0
 74
     0
  7

 75
     0
147
1.0
148
0.0
149
0.0
100
AcDbLayout
  1
Layout1
 70
     0
 71
     0
 10
0.0
 20
0.0
 11
0.0
 21
0.0
 12
0.0
 22
0.0
 32
0.0
 14
0.0
 24
0.0
 34
0.0
 15
0.0
 25
0.0
 35
0.0
146
0.0
 13
0.0
 23
0.0
 33
0.0
 16
0.0
 26
0.0
 36
0.0
 17
0.0
 27
0.0
 37
0.0
 76
     0
330
B
331
0
345
0
346
0
  0
DICTIONARY
  5
1E
102
{ACAD_REACTORS
330
19
102
}
100
AcDbDictionary
280
     0
281
     1
  3
Layout1
350
21
  3
Model
350
20
  0
DICTIONARY
  5
22
102
{ACAD_REACTORS
330
19
102
}
100
AcDbDictionary
280
     0
281
     1
  0
WIPEOUTVARIABLES
  5
23
100
AcDbWipeoutVariables
 70
     1
  0
ENDSEC
  0
EOF
