  0
SECTION
  2
HEADER
  9
$ACADVER
  1
AC1015
  9
$ACADMAINTVER
 70
     6
  9
$DWGCODEPAGE
  3
ANSI_1252
  9
$INSBASE
 10
0.0
 20
0.0
 30
0.0
  9
$EXTMIN
 10
1.000000E+20
 20
1.000000E+20
 30
1.000000E+20
  9
$EXTMAX
 10
-1.000000E+20
 20
-1.000000E+20
 30
-1.000000E+20
  9
$LIMMIN
 10
0.0
 20
0.0
  9
$LIMMAX
 10
0.0
 20
0.0
  9
$ORTHOMODE
 70
     0
  9
$REGENMODE
 70
     1
  9
$FILLMODE
 70
     1
  9
$QTEXTMODE
 70
     0
  9
$MIRRTEXT
 70
     1
  9
$LTSCALE
 40
50.0
  9
$ATTMODE
 70
     1
  9
$TEXTSIZE
 40
0.2
  9
$TRACEWID
 40
0.05
  9
$TEXTSTYLE
  7
Standard
  9
$CLAYER
  8
0
  9
$CELTYPE
  6
Continuous
  9
$CECOLOR
 62
   256
  9
$CELTSCALE
 40
1.0
  9
$DISPSILH
 70
     0
  9
$DIMSCALE
 40
1.0
  9
$DIMASZ
 40
0.18
  9
$DIMEXO
 40
0.0625
  9
$DIMDLI
 40
0.38
  9
$DIMRND
 40
0.0
  9
$DIMDLE
 40
0.0
  9
$DIMEXE
 40
0.18
  9
$DIMTP
 40
0.0
  9
$DIMTM
 40
0.0
  9
$DIMTXT
 40
0.18
  9
$DIMCEN
 40
0.09
  9
$DIMTSZ
 40
0.0
  9
$DIMTOL
 70
     0
  9
$DIMLIM
 70
     0
  9
$DIMTIH
 70
     1
  9
$DIMTOH
 70
     1
  9
$DIMSE1
 70
     0
  9
$DIMSE2
 70
     0
  9
$DIMTAD
 70
     0
  9
$DIMZIN
 70
     0
  9
$DIMBLK
  1

  9
$DIMASO
 70
     1
  9
$DIMSHO
 70
     1
  9
$DIMPOST
  1

  9
$DIMAPOST
  1

  9
$DIMALT
 70
     0
  9
$DIMALTD
 70
     2
  9
$DIMALTF
 40
25.4
  9
$DIMLFAC
 40
1.0
  9
$DIMTOFL
 70
     0
  9
$DIMTVP
 40
0.0
  9
$DIMTIX
 70
     0
  9
$DIMSOXD
 70
     0
  9
$DIMSAH
 70
     0
  9
$DIMBLK1
  1

  9
$DIMBLK2
  1

  9
$DIMSTYLE
  2
Standard
  9
$DIMCLRD
 70
     0
  9
$DIMCLRE
 70
     0
  9
$DIMCLRT
 70
     0
  9
$DIMTFAC
 40
1.0
  9
$DIMGAP
 40
0.09
  9
$DIMJUST
 70
     0
  9
$DIMSD1
 70
     0
  9
$DIMSD2
 70
     0
  9
$DIMTOLJ
 70
     1
  9
$DIMTZIN
 70
     0
  9
$DIMALTZ
 70
     0
  9
$DIMALTTZ
 70
     0
  9
$DIMUPT
 70
     0
  9
$DIMDEC
 70
     4
  9
$DIMTDEC
 70
     4
  9
$DIMALTU
 70
     2
  9
$DIMALTTD
 70
     2
  9
$DIMTXSTY
  7
Standard
  9
$DIMAUNIT
 70
     0
  9
$DIMADEC
 70
     0
  9
$DIMALTRND
 40
0.0
  9
$DIMAZIN
 70
     0
  9
$DIMDSEP
 70
     0
  9
$DIMATFIT
 70
     3
  9
$DIMFRAC
 70
     0
  9
$DIMLDRBLK
  1

  9
$DIMLUNIT
 70
     2
  9
$DIMLWD
 70
     0
  9
$DIMLWE
 70
     0
  9
$DIMTMOVE
 70
     0
  9
$LUNITS
 70
     2
  9
$LUPREC
 70
     4
  9
$SKETCHINC
 40
0.1
  9
$FILLETRAD
 40
0.0
  9
$AUNITS
 70
     0
  9
$AUPREC
 70
     0
  9
$MENU
  1
acad
  9
$ELEVATION
 40
0.0
  9
$PELEVATION
 40
0.0
  9
$THICKNESS
 40
0.0
  9
$LIMCHECK
 70
     0
  9
$CHAMFERA
 40
0.0
  9
$CHAMFERB
 40
0.0
  9
$CHAMFERC
 40
0.0
  9
$CHAMFERD
 40
0.0
  9
$SKPOLY
 70
     0
  9
$TDCREATE
 40
0.000000000
  9
$TDUCREATE
 40
0.000000000
  9
$TDUPDATE
 40
0.000000000
  9
$TDUUPDATE
 40
0.000000000
  9
$TDINDWG
 40
0.0000000000
  9
$TDUSRTIMER
 40
0.0000000000
  9
$USRTIMER
 70
     1
  9
$ANGBASE
 50
0.0
  9
$ANGDIR
 70
     0
  9
$PDMODE
 70
     0
  9
$PDSIZE
 40
0.0
  9
$PLINEWID
 40
0.0
  9
$SPLFRAME
 70
     0
  9
$SPLINETYPE
 70
     6
  9
$SPLINESEGS
 70
   120
  9
$HANDSEED
  5
AE
  9
$SURFTAB1
 70
     6
  9
$SURFTAB2
 70
     6
  9
$SURFTYPE
 70
     6
  9
$SURFU
 70
     6
  9
$SURFV
 70
     6
  9
$UCSBASE
  2

  9
$UCSNAME
  2

  9
$UCSORG
 10
0.0
 20
0.0
 30
0.0
  9
$UCSXDIR
 10
1.0
 20
0.0
 30
0.0
  9
$UCSYDIR
 10
0.0
 20
1.0
 30
0.0
  9
$UCSORTHOREF
  2

  9
$UCSORTHOVIEW
 70
     0
  9
$UCSORGTOP
 10
0.0
 20
0.0
 30
0.0
  9
$UCSORGBOTTOM
 10
0.0
 20
0.0
 30
0.0
  9
$UCSORGLEFT
 10
0.0
 20
0.0
 30
0.0
  9
$UCSORGRIGHT
 10
0.0
 20
0.0
 30
0.0
  9
$UCSORGFRONT
 10
0.0
 20
0.0
 30
0.0
  9
$UCSORGBACK
 10
0.0
 20
0.0
 30
0.0
  9
$PUCSBASE
  2

  9
$PUCSNAME
  2

  9
$PUCSORG
 10
0.0
 20
0.0
 30
0.0
  9
$PUCSXDIR
 10
1.0
 20
0.0
 30
0.0
  9
$PUCSYDIR
 10
0.0
 20
1.0
 30
0.0
  9
$PUCSORTHOREF
  2

  9
$PUCSORTHOVIEW
 70
     0
  9
$PUCSORGTOP
 10
0.0
 20
0.0
 30
0.0
  9
$PUCSORGBOTTOM
 10
0.0
 20
0.0
 30
0.0
  9
$PUCSORGLEFT
 10
0.0
 20
0.0
 30
0.0
  9
$PUCSORGRIGHT
 10
0.0
 20
0.0
 30
0.0
  9
$PUCSORGFRONT
 10
0.0
 20
0.0
 30
0.0
  9
$PUCSORGBACK
 10
0.0
 20
0.0
 30
0.0
  9
$USERI1
 70
 12345
  9
$USERI2
 70
     0
  9
$USERI3
 70
     0
  9
$USERI4
 70
     0
  9
$USERI5
 70
     0
  9
$USERR1
 40
0.0
  9
$USERR2
 40
0.0
  9
$USERR3
 40
0.0
  9
$USERR4
 40
0.0
  9
$USERR5
 40
0.0
  9
$WORLDVIEW
 70
     1
  9
$SHADEDGE
 70
     3
  9
$SHADEDIF
 70
    70
  9
$TILEMODE
 70
     1
  9
$MAXACTVP
 70
    16
  9
$PINSBASE
 10
0.0
 20
0.0
 30
0.0
  9
$PLIMCHECK
 70
     0
  9
$PEXTMIN
 10
1.000000E+20
 20
1.000000E+20
 30
1.000000E+20
  9
$PEXTMAX
 10
-1.000000E+20
 20
-1.000000E+20
 30
-1.000000E+20
  9
$PLIMMIN
 10
0.0
 20
0.0
  9
$PLIMMAX
 10
12.0
 20
9.0
  9
$UNITMODE
 70
     0
  9
$VISRETAIN
 70
     0
  9
$PLINEGEN
 70
     1
  9
$PSLTSCALE
 70
     0
  9
$TREEDEPTH
 70
  3020
  9
$CMLSTYLE
  2
Standard
  9
$CMLJUST
 70
     0
  9
$CMLSCALE
 40
1.0
  9
$PROXYGRAPHICS
 70
     0
  9
$MEASUREMENT
 70
     0
  9
$CELWEIGHT
370
     0
  9
$ENDCAPS
280
     0
  9
$JOINSTYLE
280
     0
  9
$LWDISPLAY
290
     0
  9
$INSUNITS
 70
     0
  9
$HYPERLINKBASE
  1

  9
$STYLESHEET
  1

  9
$XEDIT
290
     1
  9
$CEPSNTYPE
380
     0
  9
$PSTYLEMODE
290
     1
  9
$FINGERPRINTGUID
  2

  9
$VERSIONGUID
  2

  9
$EXTNAMES
290
     1
  9
$PSVPSCALE
 40
0.0
  0
ENDSEC
  0
SECTION
  2
CLASSES
  0
CLASS
  1
LWPOLYLINE
  2
AcDbPolyline
  3
AutoCAD 2000
 90
        0
280
     0
281
     1
  0
CLASS
  1
IMAGE
  2
AcDbRasterImage
  3
ISM
 90
      127
280
     0
281
     1
  0
CLASS
  1
OLE2FRAME
  2
AcDbOle2Frame
  3
AutoCAD 2000
 90
        0
280
     0
281
     1
  0
CLASS
  1
HATCH
  2
AcDbHatch
  3
AutoCAD 2000
 90
        0
280
     0
281
     1
  0
CLASS
  1
DICTIONARYVAR
  2
AcDbDictionaryVar
  3
AutoCAD 2000
 90
        0
280
     0
281
     0
  0
CLASS
  1
RASTERVARIABLES
  2
AcDbRasterVariables
  3
ISM
 90
        0
280
     0
281
     0
  0
CLASS
  1
IMAGEDEF
  2
AcDbRasterImageDef
  3
ISM
 90
        0
280
     0
281
     0
  0
CLASS
  1
IMAGEDEF_REACTOR
  2
AcDbRasterImageDefReactor
  3
ISM
 90
        1
280
     0
281
     0
  0
CLASS
  1
IDBUFFER
  2
AcDbIdBuffer
  3
AutoCAD 2000
 90
        0
280
     0
281
     0
  0
CLASS
  1
SPATIAL_FILTER
  2
AcDbSpatialFilter
  3
AutoCAD 2000
 90
        0
280
     0
281
     0
  0
CLASS
  1
XRECORD
  2
AcDbXrecord
  3
AutoCAD 2000
 90
        0
280
     0
281
     0
  0
CLASS
  1
SORTENTSTABLE
  2
AcDbSortentsTable
  3
AutoCAD 2000
 90
        0
280
     0
281
     0
  0
CLASS
  1
LAYER_INDEX
  2
AcDbLayerIndex
  3
AutoCAD 2000
 90
        0
280
     0
281
     0
  0
CLASS
  1
SPATIAL_INDEX
  2
AcDbSpatialIndex
  3
AutoCAD 2000
 90
        0
280
     0
281
     0
  0
CLASS
  1
OBJECT_PTR
  2
CAseDLPNTableRecord
  3
"ASE-LPNTableRecord"
 90
        1
280
     0
281
     0
  0
CLASS
  1
LAYOUT
  2
AcDbLayout
  3
AutoCAD 2000
 90
        0
280
     0
281
     0
  0
CLASS
  1
PLOTSETTINGS
  2
AcDbPlotSettings
  3
AutoCAD 2000
 90
        0
280
     0
281
     0
  0
CLASS
  1
ACDBDICTIONARYWDFLT
  2
AcDbDictionaryWithDefault
  3
AutoCAD 2000
 90
        0
280
     0
281
     0
  0
CLASS
  1
ACDBPLACEHOLDER
  2
AcDbPlaceHolder
  3
AutoCAD 2000
 90
        0
280
     0
281
     0
  0
CLASS
  1
VBA_PROJECT
  2
AcDbVbaProject
  3
acadvba
 90
        0
280
     0
281
     0
  0
CLASS
  1
WIPEOUT
  2
AcDbWipeout
  3
WipeOut|AutoCAD Express Tool|expresstools@autodesk.com
 90
      127
280
     0
281
     1
  0
CLASS
  1
WIPEOUTVARIABLES
  2
AcDbWipeoutVariables
  3
WipeOut|AutoCAD Express Tool|expresstools@autodesk.com
 90
        0
280
     0
281
     0
  0
CLASS
  1
RTEXT
  2
RText
  3
RText|AutoCAD Express Tool|expresstools@autodesk.com
 90
        0
280
     0
281
     1
  0
CLASS
  1
ARCALIGNEDTEXT
  2
AcDbArcAlignedText
  3
ATEXT|AutoCAD Express Tool|expresstools@autodesk.com
 90
        0
280
     0
281
     1
  0
ENDSEC
  0
SECTION
  2
TABLES
  0
TABLE
  2
VPORT
  5
7
100
AcDbSymbolTable
 70
     1
  0
VPORT
  5
15
100
AcDbSymbolTableRecord
100
AcDbViewportTableRecord
  2
*ACTIVE
 70
     0
 10
0.0
 20
0.0
 11
1.0
 21
1.0
 12
669.5
 22
-168.0
 13
0.0
 23
0.0
 14
1.0
 24
1.0
 15
0.0
 25
0.0
 16
0.0
 26
0.0
 36
1.0
 17
0.0
 27
0.0
 37
0.0
 40
2900.0
 41
0.688564
 42
50.0
 43
0.0
 44
0.0
 50
0.0
 51
0.0
 71
     0
 72
   100
 73
     1
 74
     1
 75
     0
 76
     0
 77
     0
 78
     0
281
     0
 65
     0
110
0.0
120
0.0
130
0.0
111
1.0
121
0.0
131
0.0
112
0.0
122
1.0
132
0.0
345
0
346
0
 79
     0
146
0.0
  0
ENDTAB
  0
TABLE
  2
LTYPE
  5
4
100
AcDbSymbolTable
 70
     7
  0
LTYPE
  5
11
100
AcDbSymbolTableRecord
100
AcDbLinetypeTableRecord
  2
ByBlock
 70
    64
  3

 72
    65
 73
     0
 40
0.0
  0
LTYPE
  5
12
100
AcDbSymbolTableRecord
100
AcDbLinetypeTableRecord
  2
ByLayer
 70
    64
  3

 72
    65
 73
     0
 40
0.0
  0
LTYPE
  5
13
100
AcDbSymbolTableRecord
100
AcDbLinetypeTableRecord
  2
Continuous
 70
    64
  3
Solid line
 72
    65
 73
     0
 40
0.0
  0
LTYPE
  5
24
100
AcDbSymbolTableRecord
100
AcDbLinetypeTableRecord
  2
DASHED
 70
    64
  3
Dashed __ __ __
 72
    65
 73
     2
 40
0.75
 49
0.5
 74
     0
 49
-0.25
 74
     0
  0
LTYPE
  5
25
100
AcDbSymbolTableRecord
100
AcDbLinetypeTableRecord
  2
DOT
 70
    64
  3
Dot . . . .
 72
    65
 73
     2
 40
0.25
 49
0.0
 74
     0
 49
-0.25
 74
     0
  0
LTYPE
  5
26
100
AcDbSymbolTableRecord
100
AcDbLinetypeTableRecord
  2
DASHDOT
 70
    64
  3
Dash dot __ . __ .
 72
    65
 73
     4
 40
1.0
 49
0.5
 74
     0
 49
-0.25
 74
     0
 49
0.0
 74
     0
 49
-0.25
 74
     0
  0
LTYPE
  5
27
100
AcDbSymbolTableRecord
100
AcDbLinetypeTableRecord
  2
DIVIDE
 70
    64
  3
Divide __ . . __ . .
 72
    65
 73
     6
 40
1.25
 49
0.5
 74
     0
 49
-0.25
 74
     0
 49
0.0
 74
     0
 49
-0.25
 74
     0
 49
0.0
 74
     0
 49
-0.25
 74
     0
  0
ENDTAB
  0
TABLE
  2
LAYER
  5
2
100
AcDbSymbolTable
 70
     3
  0
LAYER
  5
14
100
AcDbSymbolTableRecord
100
AcDbLayerTableRecord
  2
0
 70
     0
 62
     7
  6
Continuous
290
     1
370
    -3
390
1D
  0
LAYER
  5
29
100
AcDbSymbolTableRecord
100
AcDbLayerTableRecord
  2
LAYER01
 70
     0
 62
     7
  6
Continuous
290
     1
370
    -3
390
1D
  0
LAYER
  5
2B
100
AcDbSymbolTableRecord
100
AcDbLayerTableRecord
  2
LAYER22
 70
     0
 62
     7
  6
Continuous
290
     1
370
    -3
390
1D
  0
ENDTAB
  0
TABLE
  2
STYLE
  5
3
100
AcDbSymbolTable
 70
     1
  0
STYLE
  5
17
100
AcDbSymbolTableRecord
100
AcDbTextStyleTableRecord
  2
Standard
 70
     0
 40
0.0
 41
1.0
 50
0.0
 71
     0
 42
0.0
  3
txt
  4

  0
ENDTAB
  0
TABLE
  2
VIEW
  5
5
100
AcDbSymbolTable
 70
     0
  0
ENDTAB
  0
TABLE
  2
UCS
  5
6
100
AcDbSymbolTable
 70
     0
  0
ENDTAB
  0
TABLE
  2
APPID
  5
8
100
AcDbSymbolTable
 70
     1
  0
APPID
  5
16
100
AcDbSymbolTableRecord
100
AcDbRegAppTableRecord
  2
ACAD
 70
     0
  0
ENDTAB
  0
TABLE
  2
DIMSTYLE
  5
9
100
AcDbSymbolTable
 70
     1
100
AcDbDimStyleTable
 71
     0
  0
DIMSTYLE
105
18
100
AcDbSymbolTableRecord
100
AcDbDimStyleTableRecord
  2
Standard
 70
     0
  3

  4

 40
1.0
 41
0.18
 42
0.0625
 43
0.38
 44
0.18
 45
0.0
 46
0.0
 47
0.0
 48
0.0
 71
     0
 72
     0
 73
     1
 74
     1
 75
     0
 76
     0
 77
     0
 78
     0
 79
     0
140
0.18
141
0.09
142
0.0
143
25.4
144
1.0
145
0.0
146
1.0
147
0.09
148
0.0
170
     0
171
     2
172
     0
173
     0
174
     0
175
     0
176
     0
177
     0
178
     0
179
     0
271
     4
272
     4
273
     2
274
     2
275
     0
276
     0
277
     2
278
    46
279
     0
280
     0
281
     0
282
     0
283
     1
284
     0
285
     0
286
     0
288
     0
289
     3
340
17
341
0
342
0
343
0
344
0
371
    -2
372
    -2
  0
ENDTAB
  0
TABLE
  2
BLOCK_RECORD
  5
1
100
AcDbSymbolTable
 70
     0
  0
BLOCK_RECORD
  5
A
100
AcDbSymbolTableRecord
100
AcDbBlockTableRecord
  2
*MODEL_SPACE
340
20
  0
BLOCK_RECORD
  5
B
100
AcDbSymbolTableRecord
100
AcDbBlockTableRecord
  2
*PAPER_SPACE
340
21
  0
ENDTAB
  0
ENDSEC
  0
SECTION
  2
BLOCKS
  0
BLOCK
  5
D
100
AcDbEntity
  8
0
390
0
100
AcDbBlockBegin
  2
*MODEL_SPACE
 70
     0
 10
0.0
 20
0.0
 30
0.0
  3
*MODEL_SPACE
  1

  0
ENDBLK
  5
E
100
AcDbEntity
  8
0
390
0
100
AcDbBlockEnd
  0
BLOCK
  5
F
100
AcDbEntity
 67
     1
  8
0
390
0
100
AcDbBlockBegin
  2
*PAPER_SPACE
 70
     0
 10
0.0
 20
0.0
 30
0.0
  3
*PAPER_SPACE
  1

  0
ENDBLK
  5
10
100
AcDbEntity
 67
     1
  8
0
390
0
100
AcDbBlockEnd
  0
ENDSEC
  0
SECTION
  2
ENTITIES
  0
MTEXT
  5
28
100
AcDbEntity
  8
LAYER01
390
0
 62
     2
100
AcDbMText
 10
-93.0
 20
1212.0
 30
0.0
 40
11.25
 41
0.0
 71
     7
 72
     1
  1
UNO 8A
 11
1.0
 21
0.0
 31
0.0
 73
     1
 44
1.333333
  0
LWPOLYLINE
  5
2A
100
AcDbEntity
  8
LAYER22
370
    13
390
0
  6
Continuous
 62
     5
100
AcDbPolyline
 90
        2
 70
     0
 10
-20.0
 20
985.0
 10
180.0
 20
985.0
  0
LWPOLYLINE
  5
2C
100
AcDbEntity
  8
LAYER22
370
    18
390
0
  6
Continuous
 62
     1
100
AcDbPolyline
 90
        2
 70
     0
 10
-20.000036
 20
987.5
 10
-20.000036
 20
977.5
  0
LWPOLYLINE
  5
2D
100
AcDbEntity
  8
LAYER22
370
    18
390
0
  6
Continuous
 62
     1
100
AcDbPolyline
 90
        2
 70
     0
 10
179.999969
 20
987.5
 10
179.999969
 20
977.5
  0
MTEXT
  5
2E
100
AcDbEntity
  8
LAYER22
390
0
 62
     2
100
AcDbMText
 10
80.0
 20
989.166687
 30
0.0
 40
11.25
 41
0.0
 71
     8
 72
     1
  1
200
 11
1.0
 21
0.0
 31
0.0
 73
     1
 44
1.333333
  0
LWPOLYLINE
  5
2F
100
AcDbEntity
  8
LAYER22
370
    18
390
0
  6
Continuous
 62
     1
100
AcDbPolyline
 90
        4
 70
     1
 10
-20.0
 20
-1536.0
 10
-20.0
 20
1092.0
 10
180.0
 20
1092.0
 10
180.0
 20
-1536.0
  0
LWPOLYLINE
  5
30
100
AcDbEntity
  8
LAYER22
370
    18
390
0
  6
Continuous
 62
     1
100
AcDbPolyline
 90
        4
 70
     1
 10
180.0
 20
-1536.0
 10
180.0
 20
1092.0
 10
210.0
 20
1092.0
 10
210.0
 20
-1536.0
  0
LWPOLYLINE
  5
31
100
AcDbEntity
  8
LAYER22
370
    25
390
0
  6
Continuous
 62
     2
100
AcDbPolyline
 90
       23
 70
     0
 10
80.0
 20
1144.0
 10
89.337402
 20
1143.999512
 10
89.337402
 20
1142.384766
 10
98.927246
 20
1142.384766
 42
-0.414214
 10
100.54248
 20
1140.769531
 10
100.54248
 20
1118.056641
 10
101.276367
 20
1113.895508
 42
-0.466313
 10
99.685547
 20
1111.999878
 10
88.983887
 20
1112.0
 42
-0.469821
 10
87.396553
 20
1113.914185
 10
88.176758
 20
1118.056641
 10
89.186035
 20
1118.056641
 10
89.186035
 20
1114.725586
 10
89.892578
 20
1114.019043
 10
95.444824
 20
1114.019043
 10
96.151367
 20
1114.725586
 10
96.151367
 20
1118.056641
 10
98.523438
 20
1118.056641
 10
98.523438
 20
1137.337402
 42
0.414214
 10
95.495117
 20
1140.365723
 10
86.410156
 20
1140.365723
 10
86.410156
 20
1141.879883
 10
80.0
 20
1141.879883
  0
LWPOLYLINE
  5
32
100
AcDbEntity
  8
LAYER22
370
    25
390
0
  6
Continuous
 62
     2
100
AcDbPolyline
 90
       23
 70
     0
 10
80.0
 20
1144.0
 10
70.662598
 20
1143.999512
 10
70.662598
 20
1142.384766
 10
61.072754
 20
1142.384766
 42
0.414214
 10
59.45752
 20
1140.769531
 10
59.45752
 20
1118.056641
 10
58.723633
 20
1113.895508
 42
0.466313
 10
60.314453
 20
1111.999878
 10
71.016113
 20
1112.0
 42
0.469821
 10
72.603447
 20
1113.914185
 10
71.823242
 20
1118.056641
 10
70.813965
 20
1118.056641
 10
70.813965
 20
1114.725586
 10
70.107422
 20
1114.019043
 10
64.555176
 20
1114.019043
 10
63.848633
 20
1114.725586
 10
63.848633
 20
1118.056641
 10
61.476563
 20
1118.056641
 10
61.476563
 20
1137.337402
 42
-0.414214
 10
64.504883
 20
1140.365723
 10
73.589844
 20
1140.365723
 10
73.589844
 20
1141.879883
 10
80.0
 20
1141.879883
  0
LWPOLYLINE
  5
33
100
AcDbEntity
  8
LAYER22
370
    18
390
0
  6
Continuous
 62
     1
100
AcDbPolyline
 90
        6
 70
     1
 10
84.999023
 20
1141.879883
 10
75.000977
 20
1141.879883
 10
77.958008
 20
1144.879883
 10
77.958008
 20
1154.879883
 10
81.958008
 20
1154.879883
 10
81.958008
 20
1144.879883
  0
LWPOLYLINE
  5
34
100
AcDbEntity
  8
LAYER22
370
    18
390
0
  6
Continuous
 62
     1
100
AcDbPolyline
 90
        2
 70
     0
 10
77.958008
 20
1144.879883
 10
81.958008
 20
1144.879883
  0
LWPOLYLINE
  5
35
100
AcDbEntity
  8
LAYER22
370
    18
390
0
  6
Continuous
 62
     1
100
AcDbPolyline
 90
       22
 70
     0
 10
77.958008
 20
1154.879883
 10
81.808105
 20
1157.129883
 10
78.250732
 20
1159.270508
 10
81.512695
 20
1161.560303
 10
78.566895
 20
1164.012207
 10
81.196045
 20
1166.311035
 10
78.875
 20
1168.634766
 10
80.892822
 20
1170.860352
 10
79.159912
 20
1172.905029
 10
80.634521
 20
1174.732178
 10
79.389893
 20
1176.355957
 10
80.451904
 20
1177.473877
 10
79.536621
 20
1178.557373
 10
80.309814
 20
1179.602051
 10
79.670654
 20
1180.570068
 10
80.196045
 20
1181.311768
 10
79.779053
 20
1182.192383
 10
80.100586
 20
1182.743408
 10
79.840576
 20
1183.116455
 10
80.038818
 20
1183.66748
 10
79.9021
 20
1184.039063
 10
80.0
 20
1184.870117
  0
LWPOLYLINE
  5
36
100
AcDbEntity
  8
LAYER22
370
    18
390
0
  6
Continuous
 62
     1
100
AcDbPolyline
 90
        4
 70
     1
 10
64.303223
 20
1138.246094
 10
70.359863
 20
1138.246094
 10
70.359863
 20
1114.019043
 10
64.303223
 20
1114.019043
  0
LWPOLYLINE
  5
37
100
AcDbEntity
  8
LAYER22
370
    18
390
0
  6
Continuous
 62
     1
100
AcDbPolyline
 90
        4
 70
     1
 10
70.359863
 20
1132.693848
 10
89.640625
 20
1132.693848
 10
89.640625
 20
1119.570801
 10
70.359863
 20
1119.570801
  0
LWPOLYLINE
  5
38
100
AcDbEntity
  8
LAYER22
370
    18
390
0
  6
Continuous
 62
     1
100
AcDbPolyline
 90
        4
 70
     1
 10
89.640625
 20
1138.246094
 10
95.697266
 20
1138.246094
 10
95.697266
 20
1114.019043
 10
89.640625
 20
1114.019043
  0
LWPOLYLINE
  5
39
100
AcDbEntity
  8
LAYER22
370
    18
390
0
  6
Continuous
 62
     1
100
AcDbPolyline
 90
        4
 70
     1
 10
85.047363
 20
1119.570801
 10
85.047363
 20
1092.0
 10
74.952637
 20
1092.0
 10
74.952637
 20
1119.570801
  0
LWPOLYLINE
  5
3A
100
AcDbEntity
  8
LAYER22
370
    25
390
0
  6
Continuous
 62
     2
100
AcDbPolyline
 90
        4
 70
     1
 10
102.0
 20
1112.0
 10
102.0
 20
1144.0
 10
202.0
 20
1144.0
 10
202.0
 20
1112.0
  0
LWPOLYLINE
  5
3B
100
AcDbEntity
  8
LAYER22
370
    25
390
0
  6
Continuous
 62
     2
100
AcDbPolyline
 90
        4
 70
     1
 10
-42.0
 20
1112.0
 10
-42.0
 20
1144.0
 10
58.0
 20
1144.0
 10
58.0
 20
1112.0
  0
LWPOLYLINE
  5
3C
100
AcDbEntity
  8
LAYER22
370
    18
390
0
  6
Continuous
 62
     1
100
AcDbPolyline
 90
        4
 70
     1
 10
-50.0
 20
-1536.0
 10
-50.0
 20
1092.0
 10
-20.0
 20
1092.0
 10
-20.0
 20
-1536.0
  0
LWPOLYLINE
  5
3D
100
AcDbEntity
  8
LAYER22
370
    13
390
0
  6
DASHDOT
 62
     5
100
AcDbPolyline
 90
        2
 70
     0
 10
80.0
 20
1144.0
 10
80.0
 20
-1536.0
  0
LWPOLYLINE
  5
3E
100
AcDbEntity
  8
LAYER22
370
    18
390
0
  6
Continuous
 62
     1
100
AcDbPolyline
 90
        4
 70
     1
 10
-35.5
 20
1092.0
 10
-35.5
 20
1112.0
 10
195.5
 20
1112.0
 10
195.5
 20
1092.0
  0
LWPOLYLINE
  5
3F
100
AcDbEntity
  8
LAYER22
370
    18
390
0
  6
Continuous
 62
     1
100
AcDbPolyline
 90
        4
 70
     1
 10
-35.5
 20
-1556.0
 10
-35.5
 20
-1536.0
 10
195.5
 20
-1536.0
 10
195.5
 20
-1556.0
  0
LWPOLYLINE
  5
40
100
AcDbEntity
  8
LAYER22
370
    25
390
0
  6
Continuous
 62
     2
100
AcDbPolyline
 90
       16
 70
     1
 10
622.917603
 20
805.467529
 10
796.120789
 20
905.470764
 10
798.62085
 20
901.140625
 10
792.558777
 20
897.640564
 10
792.013367
 20
898.585205
 42
1.0
 10
794.089111
 20
894.990051
 10
793.558777
 20
895.908508
 10
799.620911
 20
899.40863
 10
802.120972
 20
895.078552
 10
628.917786
 20
795.075317
 10
626.417725
 20
799.405396
 10
632.417236
 20
802.869385
 10
632.94751
 20
801.950928
 42
1.035421
 10
630.871765
 20
805.546082
 10
631.417175
 20
804.601379
 10
625.417664
 20
801.137451
  0
LWPOLYLINE
  5
41
100
AcDbEntity
  8
LAYER22
370
    25
390
0
  6
Continuous
 62
     2
100
AcDbPolyline
 90
       22
 70
     0
 10
810.183716
 20
903.317505
 10
805.359985
 20
903.317444
 10
793.300049
 20
896.354797
 10
794.080322
 20
895.003113
 42
-1.0
 10
792.019653
 20
898.57251
 10
792.800049
 20
897.220764
 10
802.047974
 20
902.559814
 10
795.805298
 20
904.942383
 10
796.161194
 20
905.876465
 10
803.164185
 20
903.204346
 10
804.726196
 20
904.106201
 10
804.792542
 20
907.998779
 10
802.707581
 20
909.413757
 10
802.708008
 20
911.36676
 10
803.20459
 20
911.86676
 10
810.183594
 20
911.866699
 10
810.183594
 20
910.86676
 10
803.708008
 20
910.866821
 10
803.673828
 20
909.875244
 10
805.726135
 20
908.248657
 10
805.726196
 20
904.317505
 10
810.183716
 20
904.317444
  0
LWPOLYLINE
  5
42
100
AcDbEntity
  8
LAYER22
370
    25
390
0
  6
Continuous
 62
     2
100
AcDbPolyline
 90
       22
 70
     0
 10
810.183716
 20
903.317505
 10
815.007446
 20
903.317627
 10
827.067627
 20
896.355713
 10
826.287354
 20
895.003967
 42
1.0
 10
828.348267
 20
898.573364
 10
827.567627
 20
897.221558
 10
818.319946
 20
902.560242
 10
824.562134
 20
904.942993
 10
824.205627
 20
905.877136
 10
817.203735
 20
903.204773
 10
815.641235
 20
904.106323
 10
815.57428
 20
907.998962
 10
817.659241
 20
909.414124
 10
817.65918
 20
911.367065
 10
817.162109
 20
911.867004
 10
810.183594
 20
911.866699
 10
810.183594
 20
910.86676
 10
816.65918
 20
910.867249
 10
816.693359
 20
909.87561
 10
814.641174
 20
908.249023
 10
814.641235
 20
904.317688
 10
810.183716
 20
904.317444
  0
LWPOLYLINE
  5
43
100
AcDbEntity
  8
LAYER22
370
    25
390
0
  6
Continuous
 62
     2
100
AcDbPolyline
 90
       22
 70
     0
 10
614.837769
 20
797.254761
 10
619.661499
 20
797.254822
 10
631.721436
 20
804.217468
 10
630.941162
 20
805.569153
 42
-1.0
 10
633.001831
 20
801.999756
 10
632.221436
 20
803.351501
 10
622.973511
 20
798.012451
 10
629.216187
 20
795.629883
 10
628.860291
 20
794.695801
 10
621.8573
 20
797.36792
 10
620.295288
 20
796.466064
 10
620.228943
 20
792.573486
 10
622.313904
 20
791.158508
 10
622.313477
 20
789.205505
 10
621.816895
 20
788.705505
 10
614.837891
 20
788.705566
 10
614.837891
 20
789.705505
 10
621.313477
 20
789.705444
 10
621.347656
 20
790.697021
 10
619.295349
 20
792.323608
 10
619.295288
 20
796.254761
 10
614.837769
 20
796.254822
  0
LWPOLYLINE
  5
44
100
AcDbEntity
  8
LAYER22
370
    25
390
0
  6
Continuous
 62
     2
100
AcDbPolyline
 90
       22
 70
     0
 10
614.837769
 20
797.254761
 10
610.014038
 20
797.254639
 10
597.953857
 20
804.216553
 10
598.734131
 20
805.568298
 42
1.0
 10
596.673218
 20
801.998901
 10
597.453857
 20
803.350708
 10
606.701538
 20
798.012024
 10
600.459351
 20
795.629272
 10
600.815857
 20
794.695129
 10
607.817749
 20
797.367493
 10
609.380249
 20
796.465942
 10
609.447205
 20
792.573303
 10
607.362244
 20
791.158142
 10
607.362305
 20
789.2052
 10
607.859375
 20
788.705261
 10
614.837891
 20
788.705566
 10
614.837891
 20
789.705505
 10
608.362305
 20
789.705017
 10
608.328125
 20
790.696655
 10
610.38031
 20
792.323242
 10
610.380249
 20
796.254578
 10
614.837769
 20
796.254822
  0
LWPOLYLINE
  5
45
100
AcDbEntity
  8
LAYER22
370
    25
390
0
  6
Continuous
 62
     2
100
AcDbPolyline
 90
       11
 70
     0
 10
513.448242
 20
851.768555
 10
519.15625
 20
849.751709
 10
529.532227
 20
843.703003
 10
530.311523
 20
845.054688
 42
-0.99997
 10
528.251099
 20
841.485046
 10
529.032227
 20
842.837036
 10
519.78418
 20
848.175781
 10
520.842773
 20
841.578613
 10
519.854492
 20
841.420166
 10
518.667969
 20
848.820068
 10
513.080078
 20
850.838501
  0
LWPOLYLINE
  5
46
100
AcDbEntity
  8
LAYER22
370
    25
390
0
  6
Continuous
 62
     2
100
AcDbPolyline
 90
       11
 70
     0
 10
513.448242
 20
851.768555
 10
509.110352
 20
853.107422
 10
509.110352
 20
864.28125
 10
510.670898
 20
864.281372
 42
1.0
 10
506.549805
 20
864.281616
 10
508.110352
 20
864.281372
 10
508.110352
 20
853.603394
 10
502.924805
 20
857.818115
 10
502.293945
 20
857.042358
 10
508.110352
 20
852.314453
 10
513.080078
 20
850.838501
  0
LWPOLYLINE
  5
47
100
AcDbEntity
  8
LAYER22
370
    18
390
0
  6
Continuous
 62
     1
100
AcDbPolyline
 90
        6
 70
     1
 10
514.625
 20
890.360352
 10
514.625
 20
880.362305
 10
511.625
 20
883.319336
 10
501.625
 20
883.319336
 10
501.625
 20
887.319336
 10
511.625
 20
887.319336
  0
LWPOLYLINE
  5
48
100
AcDbEntity
  8
LAYER22
370
    18
390
0
  6
Continuous
 62
     1
100
AcDbPolyline
 90
        2
 70
     0
 10
511.625
 20
883.319336
 10
511.625
 20
887.319336
  0
LWPOLYLINE
  5
49
100
AcDbEntity
  8
LAYER22
370
    18
390
0
  6
Continuous
 62
     1
100
AcDbPolyline
 90
       22
 70
     0
 10
501.625
 20
883.319336
 10
499.375
 20
887.169434
 10
497.234375
 20
883.612061
 10
494.94458
 20
886.874023
 10
492.492676
 20
883.928223
 10
490.193848
 20
886.557373
 10
487.870117
 20
884.236328
 10
485.644531
 20
886.25415
 10
483.599854
 20
884.52124
 10
481.772705
 20
885.99585
 10
480.148926
 20
884.751221
 10
479.031006
 20
885.813232
 10
477.94751
 20
884.897949
 10
476.902832
 20
885.671143
 10
475.934814
 20
885.031982
 10
475.193115
 20
885.557373
 10
474.3125
 20
885.140381
 10
473.761475
 20
885.461914
 10
473.388428
 20
885.201904
 10
472.837402
 20
885.400146
 10
472.46582
 20
885.263428
 10
471.634766
 20
885.361328
  0
LWPOLYLINE
  5
4A
100
AcDbEntity
  8
LAYER22
370
    25
390
0
  6
Continuous
 62
     2
100
AcDbPolyline
 90
       16
 70
     1
 10
606.758301
 20
805.468689
 10
526.208557
 20
851.952454
 10
523.709412
 20
847.621826
 10
529.772339
 20
844.123047
 10
530.317566
 20
845.06781
 42
-1.0
 10
528.242554
 20
841.472229
 10
528.772644
 20
842.390808
 10
522.709778
 20
845.889587
 10
520.210632
 20
841.55896
 10
600.760376
 20
795.075195
 10
603.259521
 20
799.405823
 10
597.259216
 20
802.868469
 10
596.729126
 20
801.94989
 42
-1.035421
 10
598.804077
 20
805.545471
 10
598.258911
 20
804.600708
 10
604.259155
 20
801.138062
  0
LWPOLYLINE
  5
4B
100
AcDbEntity
  8
LAYER22
370
    18
390
0
  6
DASHED
 62
     1
100
AcDbPolyline
 90
        4
 70
     1
 10
700.511719
 20
859.286133
 10
700.511719
 20
865.286133
 10
724.511719
 20
865.286133
 10
724.511719
 20
859.286133
  0
LWPOLYLINE
  5
4C
100
AcDbEntity
  8
LAYER22
370
    18
390
0
  6
DASHED
 62
     1
100
AcDbPolyline
 90
        4
 70
     1
 10
706.011719
 20
859.286133
 10
719.011719
 20
859.286133
 10
719.011719
 20
841.286133
 10
706.011719
 20
841.286133
  0
LWPOLYLINE
  5
4D
100
AcDbEntity
  8
LAYER22
370
    18
390
0
  6
DASHED
 62
     1
100
AcDbPolyline
 90
        4
 70
     1
 10
700.511719
 20
835.286133
 10
700.511719
 20
841.286133
 10
724.511719
 20
841.286133
 10
724.511719
 20
835.286133
  0
CIRCLE
  5
4E
100
AcDbEntity
  8
LAYER22
390
0
  6
Continuous
 62
     1
100
AcDbCircle
 10
712.511719
 20
850.286133
 30
0.0
 40
6.0
  0
CIRCLE
  5
4F
100
AcDbEntity
  8
LAYER22
390
0
  6
Continuous
 62
     1
100
AcDbCircle
 10
712.511719
 20
850.286133
 30
0.0
 40
5.0
  0
LWPOLYLINE
  5
50
100
AcDbEntity
  8
LAYER22
370
    18
390
0
  6
DASHED
 62
     1
100
AcDbPolyline
 90
        2
 70
     0
 10
710.011719
 20
845.956055
 10
715.011719
 20
854.616333
  0
LWPOLYLINE
  5
51
100
AcDbEntity
  8
LAYER22
370
    25
390
0
  6
Continuous
 62
     2
100
AcDbPolyline
 90
       22
 70
     0
 10
1200.875122
 20
903.318481
 10
1196.051392
 20
903.31842
 10
1183.991455
 20
896.355774
 10
1184.771729
 20
895.004089
 42
-1.0
 10
1182.71106
 20
898.573486
 10
1183.491455
 20
897.221741
 10
1192.73938
 20
902.560791
 10
1186.496704
 20
904.943359
 10
1186.852661
 20
905.877441
 10
1193.855591
 20
903.205322
 10
1195.417603
 20
904.107178
 10
1195.483887
 20
907.999756
 10
1193.398926
 20
909.414734
 10
1193.399414
 20
911.367737
 10
1193.895996
 20
911.867737
 10
1200.875
 20
911.867676
 10
1200.875
 20
910.867737
 10
1194.399414
 20
910.867798
 10
1194.365234
 20
909.876221
 10
1196.41748
 20
908.249634
 10
1196.417603
 20
904.318481
 10
1200.875122
 20
904.31842
  0
LWPOLYLINE
  5
52
100
AcDbEntity
  8
LAYER22
370
    25
390
0
  6
Continuous
 62
     2
100
AcDbPolyline
 90
       22
 70
     0
 10
1200.875122
 20
903.318481
 10
1205.698853
 20
903.318604
 10
1217.759033
 20
896.356689
 10
1216.97876
 20
895.004944
 42
1.0
 10
1219.039673
 20
898.574341
 10
1218.259033
 20
897.222534
 10
1209.011353
 20
902.561218
 10
1215.25354
 20
904.94397
 10
1214.897095
 20
905.878113
 10
1207.895142
 20
903.20575
 10
1206.332642
 20
904.1073
 10
1206.265625
 20
907.999939
 10
1208.350586
 20
909.4151
 10
1208.350586
 20
911.368042
 10
1207.853516
 20
911.867981
 10
1200.875
 20
911.867676
 10
1200.875
 20
910.867737
 10
1207.350586
 20
910.868225
 10
1207.384766
 20
909.876587
 10
1205.33252
 20
908.25
 10
1205.332642
 20
904.318665
 10
1200.875122
 20
904.31842
  0
LWPOLYLINE
  5
53
100
AcDbEntity
  8
LAYER22
370
    18
390
0
  6
Continuous
 62
     1
100
AcDbPolyline
 90
        6
 70
     1
 10
1475.625
 20
845.26709
 10
1475.625
 20
855.265137
 10
1478.625
 20
852.308105
 10
1488.625
 20
852.308105
 10
1488.625
 20
848.308105
 10
1478.625
 20
848.308105
  0
LWPOLYLINE
  5
54
100
AcDbEntity
  8
LAYER22
370
    18
390
0
  6
Continuous
 62
     1
100
AcDbPolyline
 90
        2
 70
     0
 10
1478.625
 20
852.308105
 10
1478.625
 20
848.308105
  0
LWPOLYLINE
  5
55
100
AcDbEntity
  8
LAYER22
370
    18
390
0
  6
Continuous
 62
     1
100
AcDbPolyline
 90
       22
 70
     0
 10
1488.625
 20
852.308105
 10
1490.875
 20
848.458008
 10
1493.015625
 20
852.015381
 10
1495.30542
 20
848.753418
 10
1497.757324
 20
851.699219
 10
1500.056152
 20
849.070068
 10
1502.379883
 20
851.391113
 10
1504.605469
 20
849.373291
 10
1506.650146
 20
851.106201
 10
1508.477295
 20
849.631592
 10
1510.101074
 20
850.876221
 10
1511.218994
 20
849.814209
 10
1512.30249
 20
850.729492
 10
1513.347168
 20
849.956299
 10
1514.315186
 20
850.595459
 10
1515.056885
 20
850.070068
 10
1515.9375
 20
850.487061
 10
1516.488525
 20
850.165527
 10
1516.861572
 20
850.425537
 10
1517.412598
 20
850.227295
 10
1517.78418
 20
850.364014
 10
1518.615234
 20
850.266113
  0
LWPOLYLINE
  5
56
100
AcDbEntity
  8
LAYER22
370
    25
390
0
  6
Continuous
 62
     2
100
AcDbPolyline
 90
       18
 70
     0
 10
1475.625
 20
850.266113
 10
1475.625
 20
856.945313
 42
-0.268065
 10
1476.875
 20
859.110291
 10
1484.450195
 20
863.483887
 10
1484.700195
 20
863.916992
 10
1484.700195
 20
865.966064
 10
1502.625
 20
865.966064
 10
1502.625
 20
863.966064
 10
1500.125
 20
863.966064
 10
1500.125
 20
864.565918
 10
1494.951172
 20
864.565918
 10
1494.951172
 20
857.866211
 10
1493.55127
 20
857.866211
 10
1493.55127
 20
864.565918
 10
1486.100098
 20
864.565918
 10
1486.100098
 20
861.665527
 10
1479.125
 20
857.638184
 10
1479.125
 20
850.266113
  0
LWPOLYLINE
  5
57
100
AcDbEntity
  8
LAYER22
370
    25
390
0
  6
Continuous
 62
     2
100
AcDbPolyline
 90
       18
 70
     0
 10
1475.625
 20
850.266113
 10
1475.625
 20
843.586914
 42
0.268065
 10
1476.875
 20
841.421936
 10
1484.450195
 20
837.04834
 10
1484.700195
 20
836.615234
 10
1484.700195
 20
834.566162
 10
1502.625
 20
834.566162
 10
1502.625
 20
836.566162
 10
1500.125
 20
836.566162
 10
1500.125
 20
835.966309
 10
1494.951172
 20
835.966309
 10
1494.951172
 20
842.666016
 10
1493.55127
 20
842.666016
 10
1493.55127
 20
835.966309
 10
1486.100098
 20
835.966309
 10
1486.100098
 20
838.866699
 10
1479.125
 20
842.894043
 10
1479.125
 20
850.266113
  0
LWPOLYLINE
  5
58
100
AcDbEntity
  8
LAYER22
370
    25
390
0
  6
Continuous
 62
     2
100
AcDbPolyline
 90
       13
 70
     0
 10
1431.679688
 20
850.195801
 10
1431.679688
 20
860.018433
 10
1437.763184
 20
863.562866
 42
0.767315
 10
1437.513184
 20
864.49585
 10
1424.704102
 20
864.49585
 10
1424.704102
 20
863.895874
 10
1422.204102
 20
863.895874
 10
1422.204102
 20
865.895874
 10
1441.805176
 20
865.895874
 42
-0.767332
 10
1442.180176
 20
864.496338
 10
1434.729492
 20
860.194946
 42
0.267954
 10
1433.47937
 20
858.029785
 10
1433.479492
 20
850.195801
  0
LWPOLYLINE
  5
59
100
AcDbEntity
  8
LAYER22
370
    25
390
0
  6
Continuous
 62
     2
100
AcDbPolyline
 90
       13
 70
     0
 10
1431.679688
 20
850.195801
 10
1431.679688
 20
840.373169
 10
1437.763184
 20
836.828735
 42
-0.767315
 10
1437.513184
 20
835.895752
 10
1424.704102
 20
835.895752
 10
1424.704102
 20
836.495728
 10
1422.204102
 20
836.495728
 10
1422.204102
 20
834.495728
 10
1441.805176
 20
834.495728
 42
0.767332
 10
1442.180176
 20
835.895264
 10
1434.729492
 20
840.196655
 42
-0.267954
 10
1433.47937
 20
842.361816
 10
1433.479492
 20
850.195801
  0
LWPOLYLINE
  5
5A
100
AcDbEntity
  8
LAYER22
370
    13
390
0
  6
DASHDOT
 62
     5
100
AcDbPolyline
 90
        2
 70
     0
 10
502.625
 20
850.28125
 10
1502.625
 20
850.28125
  0
LWPOLYLINE
  5
5B
100
AcDbEntity
  8
LAYER22
370
    25
390
0
  6
Continuous
 62
     2
100
AcDbPolyline
 90
       10
 70
     1
 10
1306.679688
 20
862.695801
 10
1431.679688
 20
862.695801
 10
1431.679688
 20
837.695801
 10
1306.679688
 20
837.695801
 10
1306.679688
 20
849.195801
 10
1313.607422
 20
849.195801
 10
1313.607422
 20
848.135254
 42
1.035178
 10
1313.607422
 20
852.286621
 10
1313.607422
 20
851.195801
 10
1306.679688
 20
851.195801
  0
LWPOLYLINE
  5
5C
100
AcDbEntity
  8
LAYER22
370
    25
390
0
  6
Continuous
 62
     2
100
AcDbPolyline
 90
       27
 70
     1
 10
1285.458008
 20
855.469482
 42
-1.035231
 10
1287.533691
 20
859.065063
 10
1286.738281
 20
857.687134
 10
1295.985352
 20
852.348267
 10
1294.924805
 20
858.944946
 10
1295.912109
 20
859.103638
 10
1297.102051
 20
851.703613
 10
1298.77002
 20
850.644043
 10
1303.804688
 20
850.644043
 10
1305.85791
 20
862.794312
 10
1306.844238
 20
862.627686
 10
1304.830566
 20
850.710938
 10
1313.605469
 20
850.710938
 10
1313.605469
 20
852.286865
 42
-1.035174
 10
1313.605469
 20
848.13501
 10
1313.605469
 20
849.710938
 10
1304.830566
 20
849.710938
 10
1306.844238
 20
837.794312
 10
1305.85791
 20
837.627686
 10
1303.815918
 20
849.710938
 10
1298.52002
 20
849.710938
 10
1298.27002
 20
849.778076
 10
1296.602051
 20
850.837524
 10
1289.599609
 20
848.165283
 10
1289.243164
 20
849.099487
 10
1295.48584
 20
851.481934
 10
1286.179688
 20
856.85498
  0
LWPOLYLINE
  5
5D
100
AcDbEntity
  8
LAYER22
370
    18
390
0
  6
DASHED
 62
     1
100
AcDbPolyline
 90
        4
 70
     1
 10
1325.378906
 20
859.210938
 10
1325.378906
 20
865.210938
 10
1349.378906
 20
865.210938
 10
1349.378906
 20
859.210938
  0
LWPOLYLINE
  5
5E
100
AcDbEntity
  8
LAYER22
370
    18
390
0
  6
DASHED
 62
     1
100
AcDbPolyline
 90
        4
 70
     1
 10
1330.878906
 20
859.210938
 10
1343.878906
 20
859.210938
 10
1343.878906
 20
841.210938
 10
1330.878906
 20
841.210938
  0
LWPOLYLINE
  5
5F
100
AcDbEntity
  8
LAYER22
370
    18
390
0
  6
DASHED
 62
     1
100
AcDbPolyline
 90
        4
 70
     1
 10
1325.378906
 20
835.210938
 10
1325.378906
 20
841.210938
 10
1349.378906
 20
841.210938
 10
1349.378906
 20
835.210938
  0
CIRCLE
  5
60
100
AcDbEntity
  8
LAYER22
390
0
  6
Continuous
 62
     1
100
AcDbCircle
 10
1337.378906
 20
850.210938
 30
0.0
 40
6.0
  0
CIRCLE
  5
61
100
AcDbEntity
  8
LAYER22
390
0
  6
Continuous
 62
     1
100
AcDbCircle
 10
1337.378906
 20
850.210938
 30
0.0
 40
5.0
  0
LWPOLYLINE
  5
62
100
AcDbEntity
  8
LAYER22
370
    18
390
0
  6
DASHED
 62
     1
100
AcDbPolyline
 90
        2
 70
     0
 10
1334.878906
 20
845.880859
 10
1339.878906
 20
854.541138
  0
LWPOLYLINE
  5
63
100
AcDbEntity
  8
LAYER22
370
    18
390
0
  6
DASHED
 62
     1
100
AcDbPolyline
 90
        4
 70
     1
 10
1390.378906
 20
859.210938
 10
1390.378906
 20
865.210938
 10
1414.378906
 20
865.210938
 10
1414.378906
 20
859.210938
  0
LWPOLYLINE
  5
64
100
AcDbEntity
  8
LAYER22
370
    18
390
0
  6
DASHED
 62
     1
100
AcDbPolyline
 90
        4
 70
     1
 10
1395.878906
 20
859.210938
 10
1408.878906
 20
859.210938
 10
1408.878906
 20
841.210938
 10
1395.878906
 20
841.210938
  0
LWPOLYLINE
  5
65
100
AcDbEntity
  8
LAYER22
370
    18
390
0
  6
DASHED
 62
     1
100
AcDbPolyline
 90
        4
 70
     1
 10
1390.378906
 20
835.210938
 10
1390.378906
 20
841.210938
 10
1414.378906
 20
841.210938
 10
1414.378906
 20
835.210938
  0
CIRCLE
  5
66
100
AcDbEntity
  8
LAYER22
390
0
  6
Continuous
 62
     1
100
AcDbCircle
 10
1402.378906
 20
850.210938
 30
0.0
 40
6.0
  0
CIRCLE
  5
67
100
AcDbEntity
  8
LAYER22
390
0
  6
Continuous
 62
     1
100
AcDbCircle
 10
1402.378906
 20
850.210938
 30
0.0
 40
5.0
  0
LWPOLYLINE
  5
68
100
AcDbEntity
  8
LAYER22
370
    18
390
0
  6
DASHED
 62
     1
100
AcDbPolyline
 90
        2
 70
     0
 10
1399.878906
 20
845.880859
 10
1404.878906
 20
854.541138
  0
LWPOLYLINE
  5
69
100
AcDbEntity
  8
LAYER22
370
    25
390
0
  6
Continuous
 62
     2
100
AcDbPolyline
 90
       10
 70
     1
 10
502.625
 20
857.28125
 10
502.625
 20
912.28125
 10
514.625
 20
912.28125
 10
514.625
 20
857.28125
 10
509.625
 20
857.28125
 10
509.625
 20
864.209961
 10
510.685547
 20
864.209961
 42
1.034934
 10
506.53418
 20
864.209961
 10
507.625
 20
864.209961
 10
507.625
 20
857.28125
  0
LWPOLYLINE
  5
6A
100
AcDbEntity
  8
LAYER22
370
    18
390
0
  6
Continuous
 62
     1
100
AcDbPolyline
 90
        6
 70
     1
 10
514.625
 20
890.360352
 10
514.625
 20
880.362305
 10
511.625
 20
883.319336
 10
501.625
 20
883.319336
 10
501.625
 20
887.319336
 10
511.625
 20
887.319336
  0
LWPOLYLINE
  5
6B
100
AcDbEntity
  8
LAYER22
370
    18
390
0
  6
Continuous
 62
     1
100
AcDbPolyline
 90
        2
 70
     0
 10
511.625
 20
883.319336
 10
511.625
 20
887.319336
  0
LWPOLYLINE
  5
6C
100
AcDbEntity
  8
LAYER22
370
    18
390
0
  6
Continuous
 62
     1
100
AcDbPolyline
 90
       22
 70
     0
 10
501.625
 20
883.319336
 10
499.375
 20
887.169434
 10
497.234375
 20
883.612061
 10
494.94458
 20
886.874023
 10
492.492676
 20
883.928223
 10
490.193848
 20
886.557373
 10
487.870117
 20
884.236328
 10
485.644531
 20
886.25415
 10
483.599854
 20
884.52124
 10
481.772705
 20
885.99585
 10
480.148926
 20
884.751221
 10
479.031006
 20
885.813232
 10
477.94751
 20
884.897949
 10
476.902832
 20
885.671143
 10
475.934814
 20
885.031982
 10
475.193115
 20
885.557373
 10
474.3125
 20
885.140381
 10
473.761475
 20
885.461914
 10
473.388428
 20
885.201904
 10
472.837402
 20
885.400146
 10
472.46582
 20
885.263428
 10
471.634766
 20
885.361328
  0
LWPOLYLINE
  5
6D
100
AcDbEntity
  8
LAYER22
370
    25
390
0
  6
Continuous
 62
     2
100
AcDbPolyline
 90
       16
 70
     1
 10
997.449585
 20
805.467529
 10
824.246399
 20
905.470764
 10
821.746338
 20
901.140625
 10
827.808411
 20
897.640564
 10
828.353821
 20
898.585205
 42
-1.0
 10
826.278076
 20
894.990051
 10
826.808411
 20
895.908508
 10
820.746277
 20
899.40863
 10
818.246216
 20
895.078552
 10
991.449402
 20
795.075317
 10
993.949463
 20
799.405396
 10
987.949951
 20
802.869385
 10
987.419678
 20
801.950928
 42
-1.035421
 10
989.495422
 20
805.546082
 10
988.950012
 20
804.601379
 10
994.949524
 20
801.137451
  0
LWPOLYLINE
  5
6E
100
AcDbEntity
  8
LAYER22
370
    25
390
0
  6
Continuous
 62
     2
100
AcDbPolyline
 90
       16
 70
     1
 10
1013.609009
 20
805.468506
 10
1186.812256
 20
905.471741
 10
1189.312256
 20
901.141602
 10
1183.250122
 20
897.641541
 10
1182.704712
 20
898.586182
 42
1.0
 10
1184.780518
 20
894.991028
 10
1184.250244
 20
895.909485
 10
1190.312378
 20
899.409607
 10
1192.812378
 20
895.079529
 10
1019.609192
 20
795.076294
 10
1017.109131
 20
799.406372
 10
1023.108643
 20
802.870361
 10
1023.638916
 20
801.951904
 42
1.035421
 10
1021.563171
 20
805.547058
 10
1022.108582
 20
804.602356
 10
1016.10907
 20
801.138428
  0
LWPOLYLINE
  5
6F
100
AcDbEntity
  8
LAYER22
370
    25
390
0
  6
Continuous
 62
     2
100
AcDbPolyline
 90
       22
 70
     0
 10
1005.531128
 20
797.255737
 10
1010.354858
 20
797.255798
 10
1022.414795
 20
804.218445
 10
1021.634521
 20
805.570129
 42
-1.0
 10
1023.69519
 20
802.000732
 10
1022.914795
 20
803.352478
 10
1013.66687
 20
798.013428
 10
1019.909546
 20
795.630859
 10
1019.55365
 20
794.696777
 10
1012.550659
 20
797.368896
 10
1010.988647
 20
796.467041
 10
1010.922302
 20
792.574463
 10
1013.007263
 20
791.159485
 10
1013.006836
 20
789.206482
 10
1012.510254
 20
788.706482
 10
1005.53125
 20
788.706543
 10
1005.53125
 20
789.706482
 10
1012.006836
 20
789.706421
 10
1012.041016
 20
790.697998
 10
1009.988708
 20
792.324585
 10
1009.988647
 20
796.255737
 10
1005.531128
 20
796.255798
  0
LWPOLYLINE
  5
70
100
AcDbEntity
  8
LAYER22
370
    25
390
0
  6
Continuous
 62
     2
100
AcDbPolyline
 90
       22
 70
     0
 10
1005.531128
 20
797.255737
 10
1000.707397
 20
797.255615
 10
988.647217
 20
804.217529
 10
989.42749
 20
805.569275
 42
1.0
 10
987.366577
 20
801.999878
 10
988.147217
 20
803.351685
 10
997.394897
 20
798.013
 10
991.15271
 20
795.630249
 10
991.509216
 20
794.696106
 10
998.511108
 20
797.368469
 10
1000.073608
 20
796.466919
 10
1000.140564
 20
792.57428
 10
998.055603
 20
791.159119
 10
998.055664
 20
789.206177
 10
998.552734
 20
788.706238
 10
1005.53125
 20
788.706543
 10
1005.53125
 20
789.706482
 10
999.055664
 20
789.705994
 10
999.021484
 20
790.697632
 10
1001.073669
 20
792.324219
 10
1001.073608
 20
796.255554
 10
1005.531128
 20
796.255798
  0
LWPOLYLINE
  5
71
100
AcDbEntity
  8
LAYER22
370
    18
390
0
  6
DASHED
 62
     1
100
AcDbPolyline
 90
        4
 70
     1
 10
1091.203125
 20
859.287109
 10
1091.203125
 20
865.287109
 10
1115.203125
 20
865.287109
 10
1115.203125
 20
859.287109
  0
LWPOLYLINE
  5
72
100
AcDbEntity
  8
LAYER22
370
    18
390
0
  6
DASHED
 62
     1
100
AcDbPolyline
 90
        4
 70
     1
 10
1096.703125
 20
859.287109
 10
1109.703125
 20
859.287109
 10
1109.703125
 20
841.287109
 10
1096.703125
 20
841.287109
  0
LWPOLYLINE
  5
73
100
AcDbEntity
  8
LAYER22
370
    18
390
0
  6
DASHED
 62
     1
100
AcDbPolyline
 90
        4
 70
     1
 10
1091.203125
 20
835.287109
 10
1091.203125
 20
841.287109
 10
1115.203125
 20
841.287109
 10
1115.203125
 20
835.287109
  0
CIRCLE
  5
74
100
AcDbEntity
  8
LAYER22
390
0
  6
Continuous
 62
     1
100
AcDbCircle
 10
1103.203125
 20
850.287109
 30
0.0
 40
6.0
  0
CIRCLE
  5
75
100
AcDbEntity
  8
LAYER22
390
0
  6
Continuous
 62
     1
100
AcDbCircle
 10
1103.203125
 20
850.287109
 30
0.0
 40
5.0
  0
LWPOLYLINE
  5
76
100
AcDbEntity
  8
LAYER22
370
    18
390
0
  6
DASHED
 62
     1
100
AcDbPolyline
 90
        2
 70
     0
 10
1100.703125
 20
845.957031
 10
1105.703125
 20
854.61731
  0
LWPOLYLINE
  5
77
100
AcDbEntity
  8
LAYER22
370
    25
390
0
  6
Continuous
 62
     2
100
AcDbPolyline
 90
       16
 70
     1
 10
1208.95459
 20
895.104553
 10
1289.504272
 20
848.620789
 10
1292.003418
 20
852.951416
 10
1285.940552
 20
856.450195
 10
1285.395386
 20
855.505432
 42
-1.0
 10
1287.470337
 20
859.101013
 10
1286.940186
 20
858.182434
 10
1293.003052
 20
854.683655
 10
1295.502197
 20
859.014282
 10
1214.952515
 20
905.498047
 10
1212.453369
 20
901.167419
 10
1218.453613
 20
897.704773
 10
1218.983765
 20
898.623352
 42
-1.035421
 10
1216.908813
 20
895.027771
 10
1217.453979
 20
895.972534
 10
1211.453735
 20
899.435181
  0
LWPOLYLINE
  5
78
100
AcDbEntity
  8
LAYER22
370
    18
390
0
  6
DASHED
 62
     1
100
AcDbPolyline
 90
        4
 70
     1
 10
508.609375
 20
607.28125
 10
508.609375
 20
613.28125
 10
532.609375
 20
613.28125
 10
532.609375
 20
607.28125
  0
LWPOLYLINE
  5
79
100
AcDbEntity
  8
LAYER22
370
    18
390
0
  6
DASHED
 62
     1
100
AcDbPolyline
 90
        4
 70
     1
 10
514.109375
 20
607.28125
 10
527.109375
 20
607.28125
 10
527.109375
 20
589.28125
 10
514.109375
 20
589.28125
  0
LWPOLYLINE
  5
7A
100
AcDbEntity
  8
LAYER22
370
    18
390
0
  6
DASHED
 62
     1
100
AcDbPolyline
 90
        4
 70
     1
 10
508.609375
 20
583.28125
 10
508.609375
 20
589.28125
 10
532.609375
 20
589.28125
 10
532.609375
 20
583.28125
  0
CIRCLE
  5
7B
100
AcDbEntity
  8
LAYER22
390
0
  6
Continuous
 62
     1
100
AcDbCircle
 10
520.609375
 20
598.28125
 30
0.0
 40
6.0
  0
CIRCLE
  5
7C
100
AcDbEntity
  8
LAYER22
390
0
  6
Continuous
 62
     1
100
AcDbCircle
 10
520.609375
 20
598.28125
 30
0.0
 40
5.0
  0
LWPOLYLINE
  5
7D
100
AcDbEntity
  8
LAYER22
370
    18
390
0
  6
DASHED
 62
     1
100
AcDbPolyline
 90
        2
 70
     0
 10
518.109375
 20
593.951172
 10
523.109375
 20
602.61145
  0
LWPOLYLINE
  5
7E
100
AcDbEntity
  8
LAYER22
370
    18
390
0
  6
Continuous
 62
     1
100
AcDbPolyline
 90
        6
 70
     1
 10
1475.625
 20
593.26709
 10
1475.625
 20
603.265137
 10
1478.625
 20
600.308105
 10
1488.625
 20
600.308105
 10
1488.625
 20
596.308105
 10
1478.625
 20
596.308105
  0
LWPOLYLINE
  5
7F
100
AcDbEntity
  8
LAYER22
370
    18
390
0
  6
Continuous
 62
     1
100
AcDbPolyline
 90
        2
 70
     0
 10
1478.625
 20
600.308105
 10
1478.625
 20
596.308105
  0
LWPOLYLINE
  5
80
100
AcDbEntity
  8
LAYER22
370
    18
390
0
  6
Continuous
 62
     1
100
AcDbPolyline
 90
       22
 70
     0
 10
1488.625
 20
600.308105
 10
1490.875
 20
596.458008
 10
1493.015625
 20
600.015381
 10
1495.30542
 20
596.753418
 10
1497.757324
 20
599.699219
 10
1500.056152
 20
597.070068
 10
1502.379883
 20
599.391113
 10
1504.605469
 20
597.373291
 10
1506.650146
 20
599.106201
 10
1508.477295
 20
597.631592
 10
1510.101074
 20
598.876221
 10
1511.218994
 20
597.814209
 10
1512.30249
 20
598.729492
 10
1513.347168
 20
597.956299
 10
1514.315186
 20
598.595459
 10
1515.056885
 20
598.070068
 10
1515.9375
 20
598.487061
 10
1516.488525
 20
598.165527
 10
1516.861572
 20
598.425537
 10
1517.412598
 20
598.227295
 10
1517.78418
 20
598.364014
 10
1518.615234
 20
598.266113
  0
LWPOLYLINE
  5
81
100
AcDbEntity
  8
LAYER22
370
    25
390
0
  6
Continuous
 62
     2
100
AcDbPolyline
 90
       18
 70
     0
 10
1475.625
 20
598.266113
 10
1475.625
 20
604.945313
 42
-0.268065
 10
1476.875
 20
607.110291
 10
1484.450195
 20
611.483887
 10
1484.700195
 20
611.916992
 10
1484.700195
 20
613.966064
 10
1502.625
 20
613.966064
 10
1502.625
 20
611.966064
 10
1500.125
 20
611.966064
 10
1500.125
 20
612.565918
 10
1494.951172
 20
612.565918
 10
1494.951172
 20
605.866211
 10
1493.55127
 20
605.866211
 10
1493.55127
 20
612.565918
 10
1486.100098
 20
612.565918
 10
1486.100098
 20
609.665527
 10
1479.125
 20
605.638184
 10
1479.125
 20
598.266113
  0
LWPOLYLINE
  5
82
100
AcDbEntity
  8
LAYER22
370
    25
390
0
  6
Continuous
 62
     2
100
AcDbPolyline
 90
       18
 70
     0
 10
1475.625
 20
598.266113
 10
1475.625
 20
591.586914
 42
0.268065
 10
1476.875
 20
589.421936
 10
1484.450195
 20
585.04834
 10
1484.700195
 20
584.615234
 10
1484.700195
 20
582.566162
 10
1502.625
 20
582.566162
 10
1502.625
 20
584.566162
 10
1500.125
 20
584.566162
 10
1500.125
 20
583.966309
 10
1494.951172
 20
583.966309
 10
1494.951172
 20
590.666016
 10
1493.55127
 20
590.666016
 10
1493.55127
 20
583.966309
 10
1486.100098
 20
583.966309
 10
1486.100098
 20
586.866699
 10
1479.125
 20
590.894043
 10
1479.125
 20
598.266113
  0
LWPOLYLINE
  5
83
100
AcDbEntity
  8
LAYER22
370
    25
390
0
  6
Continuous
 62
     2
100
AcDbPolyline
 90
       13
 70
     0
 10
689.859375
 20
598.266113
 10
689.859375
 20
608.088745
 10
695.942871
 20
611.633179
 42
0.767315
 10
695.692871
 20
612.566162
 10
682.883789
 20
612.566162
 10
682.883789
 20
611.966187
 10
680.383789
 20
611.966187
 10
680.383789
 20
613.966187
 10
699.984863
 20
613.966187
 42
-0.767332
 10
700.359863
 20
612.56665
 10
692.90918
 20
608.265259
 42
0.267954
 10
691.659119
 20
606.100098
 10
691.65918
 20
598.266113
  0
LWPOLYLINE
  5
84
100
AcDbEntity
  8
LAYER22
370
    25
390
0
  6
Continuous
 62
     2
100
AcDbPolyline
 90
       13
 70
     0
 10
689.859375
 20
598.266113
 10
689.859375
 20
588.443481
 10
695.942871
 20
584.899048
 42
-0.767315
 10
695.692871
 20
583.966064
 10
682.883789
 20
583.966064
 10
682.883789
 20
584.56604
 10
680.383789
 20
584.56604
 10
680.383789
 20
582.56604
 10
699.984863
 20
582.56604
 42
0.767332
 10
700.359863
 20
583.965576
 10
692.90918
 20
588.266968
 42
-0.267954
 10
691.659119
 20
590.432129
 10
691.65918
 20
598.266113
  0
LWPOLYLINE
  5
85
100
AcDbEntity
  8
LAYER22
370
    13
390
0
  6
DASHDOT
 62
     5
100
AcDbPolyline
 90
        2
 70
     0
 10
502.625
 20
598.28125
 10
1502.625
 20
598.28125
  0
LWPOLYLINE
  5
86
100
AcDbEntity
  8
LAYER22
370
    25
390
0
  6
Continuous
 62
     2
100
AcDbPolyline
 90
       10
 70
     1
 10
564.859375
 20
610.766113
 10
689.859375
 20
610.766113
 10
689.859375
 20
585.766113
 10
564.859375
 20
585.766113
 10
564.859375
 20
597.266113
 10
571.787109
 20
597.266113
 10
571.787109
 20
596.205566
 42
1.035178
 10
571.787109
 20
600.356934
 10
571.787109
 20
599.266113
 10
564.859375
 20
599.266113
  0
LWPOLYLINE
  5
87
100
AcDbEntity
  8
LAYER22
370
    18
390
0
  6
DASHED
 62
     1
100
AcDbPolyline
 90
        4
 70
     1
 10
583.5625
 20
607.28125
 10
583.5625
 20
613.28125
 10
607.5625
 20
613.28125
 10
607.5625
 20
607.28125
  0
LWPOLYLINE
  5
88
100
AcDbEntity
  8
LAYER22
370
    18
390
0
  6
DASHED
 62
     1
100
AcDbPolyline
 90
        4
 70
     1
 10
589.0625
 20
607.28125
 10
602.0625
 20
607.28125
 10
602.0625
 20
589.28125
 10
589.0625
 20
589.28125
  0
LWPOLYLINE
  5
89
100
AcDbEntity
  8
LAYER22
370
    18
390
0
  6
DASHED
 62
     1
100
AcDbPolyline
 90
        4
 70
     1
 10
583.5625
 20
583.28125
 10
583.5625
 20
589.28125
 10
607.5625
 20
589.28125
 10
607.5625
 20
583.28125
  0
CIRCLE
  5
8A
100
AcDbEntity
  8
LAYER22
390
0
  6
Continuous
 62
     1
100
AcDbCircle
 10
595.5625
 20
598.28125
 30
0.0
 40
6.0
  0
CIRCLE
  5
8B
100
AcDbEntity
  8
LAYER22
390
0
  6
Continuous
 62
     1
100
AcDbCircle
 10
595.5625
 20
598.28125
 30
0.0
 40
5.0
  0
LWPOLYLINE
  5
8C
100
AcDbEntity
  8
LAYER22
370
    18
390
0
  6
DASHED
 62
     1
100
AcDbPolyline
 90
        2
 70
     0
 10
593.0625
 20
593.951172
 10
598.0625
 20
602.61145
  0
LWPOLYLINE
  5
8D
100
AcDbEntity
  8
LAYER22
370
    18
390
0
  6
DASHED
 62
     1
100
AcDbPolyline
 90
        4
 70
     1
 10
648.5625
 20
607.28125
 10
648.5625
 20
613.28125
 10
672.5625
 20
613.28125
 10
672.5625
 20
607.28125
  0
LWPOLYLINE
  5
8E
100
AcDbEntity
  8
LAYER22
370
    18
390
0
  6
DASHED
 62
     1
100
AcDbPolyline
 90
        4
 70
     1
 10
654.0625
 20
607.28125
 10
667.0625
 20
607.28125
 10
667.0625
 20
589.28125
 10
654.0625
 20
589.28125
  0
LWPOLYLINE
  5
8F
100
AcDbEntity
  8
LAYER22
370
    18
390
0
  6
DASHED
 62
     1
100
AcDbPolyline
 90
        4
 70
     1
 10
648.5625
 20
583.28125
 10
648.5625
 20
589.28125
 10
672.5625
 20
589.28125
 10
672.5625
 20
583.28125
  0
CIRCLE
  5
90
100
AcDbEntity
  8
LAYER22
390
0
  6
Continuous
 62
     1
100
AcDbCircle
 10
660.5625
 20
598.28125
 30
0.0
 40
6.0
  0
CIRCLE
  5
91
100
AcDbEntity
  8
LAYER22
390
0
  6
Continuous
 62
     1
100
AcDbCircle
 10
660.5625
 20
598.28125
 30
0.0
 40
5.0
  0
LWPOLYLINE
  5
92
100
AcDbEntity
  8
LAYER22
370
    18
390
0
  6
DASHED
 62
     1
100
AcDbPolyline
 90
        2
 70
     0
 10
658.0625
 20
593.951172
 10
663.0625
 20
602.61145
  0
LWPOLYLINE
  5
93
100
AcDbEntity
  8
LAYER22
370
    25
390
0
  6
Continuous
 62
     2
100
AcDbPolyline
 90
       21
 70
     0
 10
526.638672
 20
701.959473
 10
521.125
 20
701.959473
 10
521.125
 20
691.281738
 10
522.685547
 20
691.28125
 42
-0.999763
 10
518.564453
 20
691.28125
 10
520.125
 20
691.28125
 10
520.125
 20
701.232422
 10
514.625977
 20
698.132568
 10
513.995117
 20
698.908447
 10
521.172852
 20
703.248535
 10
521.172852
 20
706.913818
 10
519.148438
 20
708.328857
 10
519.149414
 20
710.281738
 10
519.646484
 20
710.781738
 10
526.625
 20
710.781738
 10
526.625
 20
709.781738
 10
520.115234
 20
709.781738
 10
520.115234
 20
708.790283
 10
522.257813
 20
707.092041
 10
522.257813
 20
703.248535
 10
526.638672
 20
703.248535
  0
LWPOLYLINE
  5
94
100
AcDbEntity
  8
LAYER22
370
    25
390
0
  6
Continuous
 62
     2
100
AcDbPolyline
 90
       21
 70
     0
 10
526.611328
 20
701.959473
 10
532.125
 20
701.959473
 10
532.125
 20
691.281738
 10
530.564453
 20
691.28125
 42
0.999763
 10
534.685547
 20
691.28125
 10
533.125
 20
691.28125
 10
533.125
 20
701.232422
 10
538.624023
 20
698.132568
 10
539.254883
 20
698.908447
 10
532.077148
 20
703.248535
 10
532.077148
 20
706.913818
 10
534.101563
 20
708.328857
 10
534.100586
 20
710.281738
 10
533.603516
 20
710.781738
 10
526.625
 20
710.781738
 10
526.625
 20
709.781738
 10
533.134766
 20
709.781738
 10
533.134766
 20
708.790283
 10
530.992188
 20
707.092041
 10
530.992188
 20
703.248535
 10
526.611328
 20
703.248535
  0
LWPOLYLINE
  5
95
100
AcDbEntity
  8
LAYER22
370
    25
390
0
  6
Continuous
 62
     2
100
AcDbPolyline
 90
       16
 70
     1
 10
514.624512
 20
498.28125
 10
514.624512
 20
698.28125
 10
519.624512
 20
698.28125
 10
519.624512
 20
691.28125
 10
518.533691
 20
691.28125
 42
1.0
 10
522.685059
 20
691.28125
 10
521.624512
 20
691.28125
 10
521.624512
 20
698.28125
 10
526.624512
 20
698.28125
 10
526.624512
 20
498.28125
 10
521.624512
 20
498.28125
 10
521.624512
 20
505.208984
 10
522.685059
 20
505.208984
 42
1.035421
 10
518.533691
 20
505.208984
 10
519.624512
 20
505.208984
 10
519.624512
 20
498.28125
  0
LWPOLYLINE
  5
96
100
AcDbEntity
  8
LAYER22
370
    25
390
0
  6
Continuous
 62
     2
100
AcDbPolyline
 90
       21
 70
     0
 10
538.652344
 20
494.603027
 10
533.138672
 20
494.603027
 10
533.138672
 20
505.280762
 10
534.699219
 20
505.28125
 42
0.999763
 10
530.578125
 20
505.28125
 10
532.138672
 20
505.28125
 10
532.138672
 20
495.330078
 10
526.639648
 20
498.429932
 10
526.008789
 20
497.654053
 10
533.186523
 20
493.313965
 10
533.186523
 20
489.648682
 10
531.162109
 20
488.233643
 10
531.163086
 20
486.280762
 10
531.660156
 20
485.780762
 10
538.638672
 20
485.780762
 10
538.638672
 20
486.780762
 10
532.128906
 20
486.780762
 10
532.128906
 20
487.772217
 10
534.271484
 20
489.470459
 10
534.271484
 20
493.313965
 10
538.652344
 20
493.313965
  0
LWPOLYLINE
  5
97
100
AcDbEntity
  8
LAYER22
370
    25
390
0
  6
Continuous
 62
     2
100
AcDbPolyline
 90
       21
 70
     0
 10
538.625
 20
494.603027
 10
544.138672
 20
494.603027
 10
544.138672
 20
505.280762
 10
542.578125
 20
505.28125
 42
-0.999763
 10
546.699219
 20
505.28125
 10
545.138672
 20
505.28125
 10
545.138672
 20
495.330078
 10
550.637695
 20
498.429932
 10
551.268555
 20
497.654053
 10
544.09082
 20
493.313965
 10
544.09082
 20
489.648682
 10
546.115234
 20
488.233643
 10
546.114258
 20
486.280762
 10
545.617188
 20
485.780762
 10
538.638672
 20
485.780762
 10
538.638672
 20
486.780762
 10
545.148438
 20
486.780762
 10
545.148438
 20
487.772217
 10
543.005859
 20
489.470459
 10
543.005859
 20
493.313965
 10
538.625
 20
493.313965
  0
LWPOLYLINE
  5
98
100
AcDbEntity
  8
LAYER22
370
    25
390
0
  6
Continuous
 62
     2
100
AcDbPolyline
 90
       16
 70
     1
 10
526.624512
 20
498.28125
 10
526.624512
 20
698.28125
 10
531.624512
 20
698.28125
 10
531.624512
 20
691.28125
 10
530.533691
 20
691.28125
 42
1.0
 10
534.685059
 20
691.28125
 10
533.624512
 20
691.28125
 10
533.624512
 20
698.28125
 10
538.624512
 20
698.28125
 10
538.624512
 20
498.28125
 10
533.624512
 20
498.28125
 10
533.624512
 20
505.208984
 10
534.685059
 20
505.208984
 42
1.035421
 10
530.533691
 20
505.208984
 10
531.624512
 20
505.208984
 10
531.624512
 20
498.28125
  0
LWPOLYLINE
  5
99
100
AcDbEntity
  8
LAYER22
370
    18
390
0
  6
DASHED
 62
     1
100
AcDbPolyline
 90
        4
 70
     1
 10
532.609375
 20
607.28125
 10
532.609375
 20
613.28125
 10
556.609375
 20
613.28125
 10
556.609375
 20
607.28125
  0
LWPOLYLINE
  5
9A
100
AcDbEntity
  8
LAYER22
370
    18
390
0
  6
DASHED
 62
     1
100
AcDbPolyline
 90
        4
 70
     1
 10
538.109375
 20
607.28125
 10
551.109375
 20
607.28125
 10
551.109375
 20
589.28125
 10
538.109375
 20
589.28125
  0
LWPOLYLINE
  5
9B
100
AcDbEntity
  8
LAYER22
370
    18
390
0
  6
DASHED
 62
     1
100
AcDbPolyline
 90
        4
 70
     1
 10
532.609375
 20
583.28125
 10
532.609375
 20
589.28125
 10
556.609375
 20
589.28125
 10
556.609375
 20
583.28125
  0
CIRCLE
  5
9C
100
AcDbEntity
  8
LAYER22
390
0
  6
Continuous
 62
     1
100
AcDbCircle
 10
544.609375
 20
598.28125
 30
0.0
 40
6.0
  0
CIRCLE
  5
9D
100
AcDbEntity
  8
LAYER22
390
0
  6
Continuous
 62
     1
100
AcDbCircle
 10
544.609375
 20
598.28125
 30
0.0
 40
5.0
  0
LWPOLYLINE
  5
9E
100
AcDbEntity
  8
LAYER22
370
    18
390
0
  6
DASHED
 62
     1
100
AcDbPolyline
 90
        2
 70
     0
 10
542.109375
 20
593.951172
 10
547.109375
 20
602.61145
  0
LWPOLYLINE
  5
9F
100
AcDbEntity
  8
LAYER22
370
    25
390
0
  6
Continuous
 62
     2
100
AcDbPolyline
 90
       16
 70
     1
 10
538.624512
 20
498.28125
 10
538.624512
 20
698.28125
 10
543.624512
 20
698.28125
 10
543.624512
 20
691.28125
 10
542.533691
 20
691.28125
 42
1.0
 10
546.685059
 20
691.28125
 10
545.624512
 20
691.28125
 10
545.624512
 20
698.28125
 10
550.624512
 20
698.28125
 10
550.624512
 20
498.28125
 10
545.624512
 20
498.28125
 10
545.624512
 20
505.208984
 10
546.685059
 20
505.208984
 42
1.035421
 10
542.533691
 20
505.208984
 10
543.624512
 20
505.208984
 10
543.624512
 20
498.28125
  0
LWPOLYLINE
  5
A0
100
AcDbEntity
  8
LAYER22
370
    25
390
0
  6
Continuous
 62
     2
100
AcDbPolyline
 90
       16
 70
     1
 10
550.624512
 20
605.28125
 10
550.624512
 20
698.28125
 10
555.624512
 20
698.28125
 10
555.624512
 20
691.28125
 10
554.533691
 20
691.28125
 42
1.0
 10
558.685059
 20
691.28125
 10
557.624512
 20
691.28125
 10
557.624512
 20
698.28125
 10
562.624512
 20
698.28125
 10
562.624512
 20
605.28125
 10
557.624512
 20
605.28125
 10
557.624512
 20
612.208984
 10
558.685059
 20
612.208984
 42
1.035421
 10
554.533691
 20
612.208984
 10
555.624512
 20
612.208984
 10
555.624512
 20
605.28125
  0
LWPOLYLINE
  5
A1
100
AcDbEntity
  8
LAYER22
370
    25
390
0
  6
Continuous
 62
     2
100
AcDbPolyline
 90
       21
 70
     0
 10
550.638672
 20
701.959473
 10
545.125
 20
701.959473
 10
545.125
 20
691.281738
 10
546.685547
 20
691.28125
 42
-0.999763
 10
542.564453
 20
691.28125
 10
544.125
 20
691.28125
 10
544.125
 20
701.232422
 10
538.625977
 20
698.132568
 10
537.995117
 20
698.908447
 10
545.172852
 20
703.248535
 10
545.172852
 20
706.913818
 10
543.148438
 20
708.328857
 10
543.149414
 20
710.281738
 10
543.646484
 20
710.781738
 10
550.625
 20
710.781738
 10
550.625
 20
709.781738
 10
544.115234
 20
709.781738
 10
544.115234
 20
708.790283
 10
546.257813
 20
707.092041
 10
546.257813
 20
703.248535
 10
550.638672
 20
703.248535
  0
LWPOLYLINE
  5
A2
100
AcDbEntity
  8
LAYER22
370
    25
390
0
  6
Continuous
 62
     2
100
AcDbPolyline
 90
       21
 70
     0
 10
550.611328
 20
701.959473
 10
556.125
 20
701.959473
 10
556.125
 20
691.281738
 10
554.564453
 20
691.28125
 42
0.999763
 10
558.685547
 20
691.28125
 10
557.125
 20
691.28125
 10
557.125
 20
701.232422
 10
562.624023
 20
698.132568
 10
563.254883
 20
698.908447
 10
556.077148
 20
703.248535
 10
556.077148
 20
706.913818
 10
558.101563
 20
708.328857
 10
558.100586
 20
710.281738
 10
557.603516
 20
710.781738
 10
550.625
 20
710.781738
 10
550.625
 20
709.781738
 10
557.134766
 20
709.781738
 10
557.134766
 20
708.790283
 10
554.992188
 20
707.092041
 10
554.992188
 20
703.248535
 10
550.611328
 20
703.248535
  0
LWPOLYLINE
  5
A3
100
AcDbEntity
  8
LAYER22
370
    25
390
0
  6
Continuous
 62
     2
100
AcDbPolyline
 90
       16
 70
     1
 10
502.640137
 20
498.28125
 10
502.640137
 20
591.28125
 10
507.640137
 20
591.28125
 10
507.640137
 20
584.28125
 10
506.549316
 20
584.28125
 42
1.0
 10
510.700684
 20
584.28125
 10
509.640137
 20
584.28125
 10
509.640137
 20
591.28125
 10
514.640137
 20
591.28125
 10
514.640137
 20
498.28125
 10
509.640137
 20
498.28125
 10
509.640137
 20
505.208984
 10
510.700684
 20
505.208984
 42
1.035421
 10
506.549316
 20
505.208984
 10
507.640137
 20
505.208984
 10
507.640137
 20
498.28125
  0
LWPOLYLINE
  5
A4
100
AcDbEntity
  8
LAYER22
370
    25
390
0
  6
Continuous
 62
     2
100
AcDbPolyline
 90
       21
 70
     0
 10
514.652344
 20
494.603027
 10
509.138672
 20
494.603027
 10
509.138672
 20
505.280762
 10
510.699219
 20
505.28125
 42
0.999763
 10
506.578125
 20
505.28125
 10
508.138672
 20
505.28125
 10
508.138672
 20
495.330078
 10
502.639648
 20
498.429932
 10
502.008789
 20
497.654053
 10
509.186523
 20
493.313965
 10
509.186523
 20
489.648682
 10
507.162109
 20
488.233643
 10
507.163086
 20
486.280762
 10
507.660156
 20
485.780762
 10
514.638672
 20
485.780762
 10
514.638672
 20
486.780762
 10
508.128906
 20
486.780762
 10
508.128906
 20
487.772217
 10
510.271484
 20
489.470459
 10
510.271484
 20
493.313965
 10
514.652344
 20
493.313965
  0
LWPOLYLINE
  5
A5
100
AcDbEntity
  8
LAYER22
370
    25
390
0
  6
Continuous
 62
     2
100
AcDbPolyline
 90
       21
 70
     0
 10
514.625
 20
494.603027
 10
520.138672
 20
494.603027
 10
520.138672
 20
505.280762
 10
518.578125
 20
505.28125
 42
-0.999763
 10
522.699219
 20
505.28125
 10
521.138672
 20
505.28125
 10
521.138672
 20
495.330078
 10
526.637695
 20
498.429932
 10
527.268555
 20
497.654053
 10
520.09082
 20
493.313965
 10
520.09082
 20
489.648682
 10
522.115234
 20
488.233643
 10
522.114258
 20
486.280762
 10
521.617188
 20
485.780762
 10
514.638672
 20
485.780762
 10
514.638672
 20
486.780762
 10
521.148438
 20
486.780762
 10
521.148438
 20
487.772217
 10
519.005859
 20
489.470459
 10
519.005859
 20
493.313965
 10
514.625
 20
493.313965
  0
LWPOLYLINE
  5
A6
100
AcDbEntity
  8
LAYER22
370
    25
390
0
  6
Continuous
 62
     2
100
AcDbPolyline
 90
       14
 70
     1
 10
557.109375
 20
598.747803
 10
562.00293
 20
598.747803
 10
564.056641
 20
610.898193
 10
565.042969
 20
610.731445
 10
563.029297
 20
598.814697
 10
571.803711
 20
598.814697
 10
571.803711
 20
600.390625
 42
-1.035174
 10
571.803711
 20
596.23877
 10
571.803711
 20
597.814697
 10
563.029297
 20
597.814697
 10
565.042969
 20
585.897949
 10
564.056641
 20
585.731445
 10
562.013672
 20
597.814697
 10
556.109375
 20
597.814697
  0
LWPOLYLINE
  5
A7
100
AcDbEntity
  8
LAYER22
370
    25
390
0
  6
Continuous
 62
     2
100
AcDbPolyline
 90
       14
 70
     1
 10
554.548828
 20
612.242432
 42
-1.035352
 10
558.701172
 20
612.242676
 10
557.109375
 20
612.242676
 10
557.109375
 20
601.564941
 10
562.292969
 20
605.781738
 10
562.923828
 20
605.006104
 10
557.109375
 20
600.275635
 10
557.109375
 20
598.747803
 10
556.109375
 20
597.814697
 10
556.109375
 20
600.275635
 10
550.294922
 20
605.003662
 10
550.925781
 20
605.779541
 10
556.109375
 20
601.564453
 10
556.109375
 20
612.242432
  0
LWPOLYLINE
  5
A8
100
AcDbEntity
  8
LAYER22
370
    25
390
0
  6
Continuous
 62
     2
100
AcDbPolyline
 90
       10
 70
     0
 10
508.124023
 20
598.28125
 10
508.124023
 20
602.033203
 10
502.194336
 20
604.432861
 10
502.569336
 20
605.359619
 10
508.123047
 20
603.112305
 10
508.123047
 20
612.138184
 10
506.540039
 20
612.138184
 42
-1.035169
 10
510.692383
 20
612.138184
 10
509.124023
 20
612.138184
 10
509.123047
 20
598.28125
  0
LWPOLYLINE
  5
A9
100
AcDbEntity
  8
LAYER22
370
    25
390
0
  6
Continuous
 62
     2
100
AcDbPolyline
 90
       10
 70
     0
 10
508.124023
 20
598.28125
 10
508.124023
 20
593.80603
 10
502.194336
 20
591.406494
 10
502.569336
 20
590.479492
 10
508.123047
 20
592.726929
 10
508.123047
 20
584.28125
 10
506.540039
 20
584.28125
 42
1.035169
 10
510.692383
 20
584.28125
 10
509.124023
 20
584.28125
 10
509.123047
 20
598.28125
  0
LWPOLYLINE
  5
AA
100
AcDbEntity
  8
LAYER22
370
    25
390
0
  6
Continuous
 62
     2
100
AcDbPolyline
 90
       10
 70
     1
 10
502.625
 20
605.28125
 10
502.625
 20
660.28125
 10
514.625
 20
660.28125
 10
514.625
 20
605.28125
 10
509.625
 20
605.28125
 10
509.625
 20
612.209961
 10
510.685547
 20
612.209961
 42
1.034934
 10
506.53418
 20
612.209961
 10
507.625
 20
612.209961
 10
507.625
 20
605.28125
  0
LWPOLYLINE
  5
AB
100
AcDbEntity
  8
LAYER22
370
    18
390
0
  6
Continuous
 62
     1
100
AcDbPolyline
 90
        6
 70
     1
 10
514.625
 20
638.360352
 10
514.625
 20
628.362305
 10
511.625
 20
631.319336
 10
501.625
 20
631.319336
 10
501.625
 20
635.319336
 10
511.625
 20
635.319336
  0
LWPOLYLINE
  5
AC
100
AcDbEntity
  8
LAYER22
370
    18
390
0
  6
Continuous
 62
     1
100
AcDbPolyline
 90
        2
 70
     0
 10
511.625
 20
631.319336
 10
511.625
 20
635.319336
  0
LWPOLYLINE
  5
AD
100
AcDbEntity
  8
LAYER22
370
    18
390
0
  6
Continuous
 62
     1
100
AcDbPolyline
 90
       22
 70
     0
 10
501.625
 20
631.319336
 10
499.375
 20
635.169434
 10
497.234375
 20
631.612061
 10
494.94458
 20
634.874023
 10
492.492676
 20
631.928223
 10
490.193848
 20
634.557373
 10
487.870117
 20
632.236328
 10
485.644531
 20
634.25415
 10
483.599854
 20
632.52124
 10
481.772705
 20
633.99585
 10
480.148926
 20
632.751221
 10
479.031006
 20
633.813232
 10
477.94751
 20
632.897949
 10
476.902832
 20
633.671143
 10
475.934814
 20
633.031982
 10
475.193115
 20
633.557373
 10
474.3125
 20
633.140381
 10
473.761475
 20
633.461914
 10
473.388428
 20
633.201904
 10
472.837402
 20
633.400146
 10
472.46582
 20
633.263428
 10
471.634766
 20
633.361328
  0
ENDSEC
  0
SECTION
  2
OBJECTS
  0
DICTIONARY
  5
19
100
AcDbDictionary
280
     0
281
     1
  3
ACAD_GROUP
350
1A
  3
ACAD_MLINESTYLE
350
1B
  3
ACAD_LAYOUT
350
1E
  3
ACAD_PLOTSETTINGS
350
22
  3
ACAD_PLOTSTYLENAME
350
1F
  3
ACAD_WIPEOUT_VARS
350
23
  0
DICTIONARY
  5
1A
102
{ACAD_REACTORS
330
19
102
}
100
AcDbDictionary
280
     0
281
     1
  0
DICTIONARY
  5
1B
102
{ACAD_REACTORS
330
19
102
}
100
AcDbDictionary
280
     0
281
     1
  3
Standard
350
1C
  0
MLINESTYLE
  5
1C
102
{ACAD_REACTORS
330
1B
102
}
100
AcDbMlineStyle
  2
Standard
 70
     0
  3

 62
     0
 51
90.0
 52
90.0
 71
     2
 49
0.5
 62
   256
  6
ByLayer
 49
-0.5
 62
   256
  6
ByLayer
  0
ACDBDICTIONARYWDFLT
  5
1F
102
{ACAD_REACTORS
330
19
102
}
100
AcDbDictionary
281
     1
  3
Normal
350
1D
100
AcDbDictionaryWithDefault
340
1D
  0
ACDBPLACEHOLDER
  5
1D
102
{ACAD_REACTORS
330
1F
102
}
  0
LAYOUT
  5
20
102
{ACAD_REACTORS
330
1E
102
}
100
AcDbPlotSettings
  1

  2

  4

  6

 40
0.0
 41
0.0
 42
0.0
 43
0.0
 44
0.0
 45
0.0
 46
0.0
 47
0.0
 48
0.0
 49
0.0
140
0.0
141
0.0
142
1.0
143
1.0
 70
  1024
 72
     0
 73
     0
 74
     0
  7

 75
     0
147
1.0
148
0.0
149
0.0
100
AcDbLayout
  1
Model
 70
     0
 71
     0
 10
0.0
 20
0.0
 11
0.0
 21
0.0
 12
0.0
 22
0.0
 32
0.0
 14
0.0
 24
0.0
 34
0.0
 15
0.0
 25
0.0
 35
0.0
146
0.0
 13
0.0
 23
0.0
 33
0.0
 16
0.0
 26
0.0
 36
0.0
 17
0.0
 27
0.0
 37
0.0
 76
     0
330
A
331
0
345
0
346
0
  0
LAYOUT
  5
21
102
{ACAD_REACTORS
330
1E
102
}
100
AcDbPlotSettings
  1

  2

  4

  6

 40
0.0
 41
0.0
 42
0.0
 43
0.0
 44
0.0
 45
0.0
 46
0.0
 47
0.0
 48
0.0
 49
0.0
140
0.0
141
0.0
142
1.0
143
1.0
 70
     0
 72
     0
 73
     0
 74
     0
  7

 75
     0
147
1.0
148
0.0
149
0.0
100
AcDbLayout
  1
Layout1
 70
     0
 71
     0
 10
0.0
 20
0.0
 11
0.0
 21
0.0
 12
0.0
 22
0.0
 32
0.0
 14
0.0
 24
0.0
 34
0.0
 15
0.0
 25
0.0
 35
0.0
146
0.0
 13
0.0
 23
0.0
 33
0.0
 16
0.0
 26
0.0
 36
0.0
 17
0.0
 27
0.0
 37
0.0
 76
     0
330
B
331
0
345
0
346
0
  0
DICTIONARY
  5
1E
102
{ACAD_REACTORS
330
19
102
}
100
AcDbDictionary
280
     0
281
     1
  3
Layout1
350
21
  3
Model
350
20
  0
DICTIONARY
  5
22
102
{ACAD_REACTORS
330
19
102
}
100
AcDbDictionary
280
     0
281
     1
  0
WIPEOUTVARIABLES
  5
23
100
AcDbWipeoutVariables
 70
     1
  0
ENDSEC
  0
EOF
