  0
SECTION
  2
HEADER
  9
$ACADVER
  1
AC1015
  9
$ACADMAINTVER
 70
     6
  9
$DWGCODEPAGE
  3
ANSI_1252
  9
$INSBASE
 10
0.0
 20
0.0
 30
0.0
  9
$EXTMIN
 10
1.000000E+20
 20
1.000000E+20
 30
1.000000E+20
  9
$EXTMAX
 10
-1.000000E+20
 20
-1.000000E+20
 30
-1.000000E+20
  9
$LIMMIN
 10
0.0
 20
0.0
  9
$LIMMAX
 10
0.0
 20
0.0
  9
$ORTHOMODE
 70
     0
  9
$REGENMODE
 70
     1
  9
$FILLMODE
 70
     1
  9
$QTEXTMODE
 70
     0
  9
$MIRRTEXT
 70
     1
  9
$LTSCALE
 40
50.0
  9
$ATTMODE
 70
     1
  9
$TEXTSIZE
 40
0.2
  9
$TRACEWID
 40
0.05
  9
$TEXTSTYLE
  7
Standard
  9
$CLAYER
  8
0
  9
$CELTYPE
  6
Continuous
  9
$CECOLOR
 62
   256
  9
$CELTSCALE
 40
1.0
  9
$DISPSILH
 70
     0
  9
$DIMSCALE
 40
1.0
  9
$DIMASZ
 40
0.18
  9
$DIMEXO
 40
0.0625
  9
$DIMDLI
 40
0.38
  9
$DIMRND
 40
0.0
  9
$DIMDLE
 40
0.0
  9
$DIMEXE
 40
0.18
  9
$DIMTP
 40
0.0
  9
$DIMTM
 40
0.0
  9
$DIMTXT
 40
0.18
  9
$DIMCEN
 40
0.09
  9
$DIMTSZ
 40
0.0
  9
$DIMTOL
 70
     0
  9
$DIMLIM
 70
     0
  9
$DIMTIH
 70
     1
  9
$DIMTOH
 70
     1
  9
$DIMSE1
 70
     0
  9
$DIMSE2
 70
     0
  9
$DIMTAD
 70
     0
  9
$DIMZIN
 70
     0
  9
$DIMBLK
  1

  9
$DIMASO
 70
     1
  9
$DIMSHO
 70
     1
  9
$DIMPOST
  1

  9
$DIMAPOST
  1

  9
$DIMALT
 70
     0
  9
$DIMALTD
 70
     2
  9
$DIMALTF
 40
25.4
  9
$DIMLFAC
 40
1.0
  9
$DIMTOFL
 70
     0
  9
$DIMTVP
 40
0.0
  9
$DIMTIX
 70
     0
  9
$DIMSOXD
 70
     0
  9
$DIMSAH
 70
     0
  9
$DIMBLK1
  1

  9
$DIMBLK2
  1

  9
$DIMSTYLE
  2
Standard
  9
$DIMCLRD
 70
     0
  9
$DIMCLRE
 70
     0
  9
$DIMCLRT
 70
     0
  9
$DIMTFAC
 40
1.0
  9
$DIMGAP
 40
0.09
  9
$DIMJUST
 70
     0
  9
$DIMSD1
 70
     0
  9
$DIMSD2
 70
     0
  9
$DIMTOLJ
 70
     1
  9
$DIMTZIN
 70
     0
  9
$DIMALTZ
 70
     0
  9
$DIMALTTZ
 70
     0
  9
$DIMUPT
 70
     0
  9
$DIMDEC
 70
     4
  9
$DIMTDEC
 70
     4
  9
$DIMALTU
 70
     2
  9
$DIMALTTD
 70
     2
  9
$DIMTXSTY
  7
Standard
  9
$DIMAUNIT
 70
     0
  9
$DIMADEC
 70
     0
  9
$DIMALTRND
 40
0.0
  9
$DIMAZIN
 70
     0
  9
$DIMDSEP
 70
     0
  9
$DIMATFIT
 70
     3
  9
$DIMFRAC
 70
     0
  9
$DIMLDRBLK
  1

  9
$DIMLUNIT
 70
     2
  9
$DIMLWD
 70
     0
  9
$DIMLWE
 70
     0
  9
$DIMTMOVE
 70
     0
  9
$LUNITS
 70
     2
  9
$LUPREC
 70
     4
  9
$SKETCHINC
 40
0.1
  9
$FILLETRAD
 40
0.0
  9
$AUNITS
 70
     0
  9
$AUPREC
 70
     0
  9
$MENU
  1
acad
  9
$ELEVATION
 40
0.0
  9
$PELEVATION
 40
0.0
  9
$THICKNESS
 40
0.0
  9
$LIMCHECK
 70
     0
  9
$CHAMFERA
 40
0.0
  9
$CHAMFERB
 40
0.0
  9
$CHAMFERC
 40
0.0
  9
$CHAMFERD
 40
0.0
  9
$SKPOLY
 70
     0
  9
$TDCREATE
 40
0.000000000
  9
$TDUCREATE
 40
0.000000000
  9
$TDUPDATE
 40
0.000000000
  9
$TDUUPDATE
 40
0.000000000
  9
$TDINDWG
 40
0.0000000000
  9
$TDUSRTIMER
 40
0.0000000000
  9
$USRTIMER
 70
     1
  9
$ANGBASE
 50
0.0
  9
$ANGDIR
 70
     0
  9
$PDMODE
 70
     0
  9
$PDSIZE
 40
0.0
  9
$PLINEWID
 40
0.0
  9
$SPLFRAME
 70
     0
  9
$SPLINETYPE
 70
     6
  9
$SPLINESEGS
 70
   120
  9
$HANDSEED
  5
AC
  9
$SURFTAB1
 70
     6
  9
$SURFTAB2
 70
     6
  9
$SURFTYPE
 70
     6
  9
$SURFU
 70
     6
  9
$SURFV
 70
     6
  9
$UCSBASE
  2

  9
$UCSNAME
  2

  9
$UCSORG
 10
0.0
 20
0.0
 30
0.0
  9
$UCSXDIR
 10
1.0
 20
0.0
 30
0.0
  9
$UCSYDIR
 10
0.0
 20
1.0
 30
0.0
  9
$UCSORTHOREF
  2

  9
$UCSORTHOVIEW
 70
     0
  9
$UCSORGTOP
 10
0.0
 20
0.0
 30
0.0
  9
$UCSORGBOTTOM
 10
0.0
 20
0.0
 30
0.0
  9
$UCSORGLEFT
 10
0.0
 20
0.0
 30
0.0
  9
$UCSORGRIGHT
 10
0.0
 20
0.0
 30
0.0
  9
$UCSORGFRONT
 10
0.0
 20
0.0
 30
0.0
  9
$UCSORGBACK
 10
0.0
 20
0.0
 30
0.0
  9
$PUCSBASE
  2

  9
$PUCSNAME
  2

  9
$PUCSORG
 10
0.0
 20
0.0
 30
0.0
  9
$PUCSXDIR
 10
1.0
 20
0.0
 30
0.0
  9
$PUCSYDIR
 10
0.0
 20
1.0
 30
0.0
  9
$PUCSORTHOREF
  2

  9
$PUCSORTHOVIEW
 70
     0
  9
$PUCSORGTOP
 10
0.0
 20
0.0
 30
0.0
  9
$PUCSORGBOTTOM
 10
0.0
 20
0.0
 30
0.0
  9
$PUCSORGLEFT
 10
0.0
 20
0.0
 30
0.0
  9
$PUCSORGRIGHT
 10
0.0
 20
0.0
 30
0.0
  9
$PUCSORGFRONT
 10
0.0
 20
0.0
 30
0.0
  9
$PUCSORGBACK
 10
0.0
 20
0.0
 30
0.0
  9
$USERI1
 70
 12345
  9
$USERI2
 70
     0
  9
$USERI3
 70
     0
  9
$USERI4
 70
     0
  9
$USERI5
 70
     0
  9
$USERR1
 40
0.0
  9
$USERR2
 40
0.0
  9
$USERR3
 40
0.0
  9
$USERR4
 40
0.0
  9
$USERR5
 40
0.0
  9
$WORLDVIEW
 70
     1
  9
$SHADEDGE
 70
     3
  9
$SHADEDIF
 70
    70
  9
$TILEMODE
 70
     1
  9
$MAXACTVP
 70
    16
  9
$PINSBASE
 10
0.0
 20
0.0
 30
0.0
  9
$PLIMCHECK
 70
     0
  9
$PEXTMIN
 10
1.000000E+20
 20
1.000000E+20
 30
1.000000E+20
  9
$PEXTMAX
 10
-1.000000E+20
 20
-1.000000E+20
 30
-1.000000E+20
  9
$PLIMMIN
 10
0.0
 20
0.0
  9
$PLIMMAX
 10
12.0
 20
9.0
  9
$UNITMODE
 70
     0
  9
$VISRETAIN
 70
     0
  9
$PLINEGEN
 70
     1
  9
$PSLTSCALE
 70
     0
  9
$TREEDEPTH
 70
  3020
  9
$CMLSTYLE
  2
Standard
  9
$CMLJUST
 70
     0
  9
$CMLSCALE
 40
1.0
  9
$PROXYGRAPHICS
 70
     0
  9
$MEASUREMENT
 70
     0
  9
$CELWEIGHT
370
     0
  9
$ENDCAPS
280
     0
  9
$JOINSTYLE
280
     0
  9
$LWDISPLAY
290
     0
  9
$INSUNITS
 70
     0
  9
$HYPERLINKBASE
  1

  9
$STYLESHEET
  1

  9
$XEDIT
290
     1
  9
$CEPSNTYPE
380
     0
  9
$PSTYLEMODE
290
     1
  9
$FINGERPRINTGUID
  2

  9
$VERSIONGUID
  2

  9
$EXTNAMES
290
     1
  9
$PSVPSCALE
 40
0.0
  0
ENDSEC
  0
SECTION
  2
CLASSES
  0
CLASS
  1
LWPOLYLINE
  2
AcDbPolyline
  3
AutoCAD 2000
 90
        0
280
     0
281
     1
  0
CLASS
  1
IMAGE
  2
AcDbRasterImage
  3
ISM
 90
      127
280
     0
281
     1
  0
CLASS
  1
OLE2FRAME
  2
AcDbOle2Frame
  3
AutoCAD 2000
 90
        0
280
     0
281
     1
  0
CLASS
  1
HATCH
  2
AcDbHatch
  3
AutoCAD 2000
 90
        0
280
     0
281
     1
  0
CLASS
  1
DICTIONARYVAR
  2
AcDbDictionaryVar
  3
AutoCAD 2000
 90
        0
280
     0
281
     0
  0
CLASS
  1
RASTERVARIABLES
  2
AcDbRasterVariables
  3
ISM
 90
        0
280
     0
281
     0
  0
CLASS
  1
IMAGEDEF
  2
AcDbRasterImageDef
  3
ISM
 90
        0
280
     0
281
     0
  0
CLASS
  1
IMAGEDEF_REACTOR
  2
AcDbRasterImageDefReactor
  3
ISM
 90
        1
280
     0
281
     0
  0
CLASS
  1
IDBUFFER
  2
AcDbIdBuffer
  3
AutoCAD 2000
 90
        0
280
     0
281
     0
  0
CLASS
  1
SPATIAL_FILTER
  2
AcDbSpatialFilter
  3
AutoCAD 2000
 90
        0
280
     0
281
     0
  0
CLASS
  1
XRECORD
  2
AcDbXrecord
  3
AutoCAD 2000
 90
        0
280
     0
281
     0
  0
CLASS
  1
SORTENTSTABLE
  2
AcDbSortentsTable
  3
AutoCAD 2000
 90
        0
280
     0
281
     0
  0
CLASS
  1
LAYER_INDEX
  2
AcDbLayerIndex
  3
AutoCAD 2000
 90
        0
280
     0
281
     0
  0
CLASS
  1
SPATIAL_INDEX
  2
AcDbSpatialIndex
  3
AutoCAD 2000
 90
        0
280
     0
281
     0
  0
CLASS
  1
OBJECT_PTR
  2
CAseDLPNTableRecord
  3
"ASE-LPNTableRecord"
 90
        1
280
     0
281
     0
  0
CLASS
  1
LAYOUT
  2
AcDbLayout
  3
AutoCAD 2000
 90
        0
280
     0
281
     0
  0
CLASS
  1
PLOTSETTINGS
  2
AcDbPlotSettings
  3
AutoCAD 2000
 90
        0
280
     0
281
     0
  0
CLASS
  1
ACDBDICTIONARYWDFLT
  2
AcDbDictionaryWithDefault
  3
AutoCAD 2000
 90
        0
280
     0
281
     0
  0
CLASS
  1
ACDBPLACEHOLDER
  2
AcDbPlaceHolder
  3
AutoCAD 2000
 90
        0
280
     0
281
     0
  0
CLASS
  1
VBA_PROJECT
  2
AcDbVbaProject
  3
acadvba
 90
        0
280
     0
281
     0
  0
CLASS
  1
WIPEOUT
  2
AcDbWipeout
  3
WipeOut|AutoCAD Express Tool|expresstools@autodesk.com
 90
      127
280
     0
281
     1
  0
CLASS
  1
WIPEOUTVARIABLES
  2
AcDbWipeoutVariables
  3
WipeOut|AutoCAD Express Tool|expresstools@autodesk.com
 90
        0
280
     0
281
     0
  0
CLASS
  1
RTEXT
  2
RText
  3
RText|AutoCAD Express Tool|expresstools@autodesk.com
 90
        0
280
     0
281
     1
  0
CLASS
  1
ARCALIGNEDTEXT
  2
AcDbArcAlignedText
  3
ATEXT|AutoCAD Express Tool|expresstools@autodesk.com
 90
        0
280
     0
281
     1
  0
ENDSEC
  0
SECTION
  2
TABLES
  0
TABLE
  2
VPORT
  5
7
100
AcDbSymbolTable
 70
     1
  0
VPORT
  5
15
100
AcDbSymbolTableRecord
100
AcDbViewportTableRecord
  2
*ACTIVE
 70
     0
 10
0.0
 20
0.0
 11
1.0
 21
1.0
 12
292.0
 22
-52.0
 13
0.0
 23
0.0
 14
1.0
 24
1.0
 15
0.0
 25
0.0
 16
0.0
 26
0.0
 36
1.0
 17
0.0
 27
0.0
 37
0.0
 40
2876.0
 41
0.688564
 42
50.0
 43
0.0
 44
0.0
 50
0.0
 51
0.0
 71
     0
 72
   100
 73
     1
 74
     1
 75
     0
 76
     0
 77
     0
 78
     0
281
     0
 65
     0
110
0.0
120
0.0
130
0.0
111
1.0
121
0.0
131
0.0
112
0.0
122
1.0
132
0.0
345
0
346
0
 79
     0
146
0.0
  0
ENDTAB
  0
TABLE
  2
LTYPE
  5
4
100
AcDbSymbolTable
 70
     7
  0
LTYPE
  5
11
100
AcDbSymbolTableRecord
100
AcDbLinetypeTableRecord
  2
ByBlock
 70
    64
  3

 72
    65
 73
     0
 40
0.0
  0
LTYPE
  5
12
100
AcDbSymbolTableRecord
100
AcDbLinetypeTableRecord
  2
ByLayer
 70
    64
  3

 72
    65
 73
     0
 40
0.0
  0
LTYPE
  5
13
100
AcDbSymbolTableRecord
100
AcDbLinetypeTableRecord
  2
Continuous
 70
    64
  3
Solid line
 72
    65
 73
     0
 40
0.0
  0
LTYPE
  5
24
100
AcDbSymbolTableRecord
100
AcDbLinetypeTableRecord
  2
DASHED
 70
    64
  3
Dashed __ __ __
 72
    65
 73
     2
 40
0.75
 49
0.5
 74
     0
 49
-0.25
 74
     0
  0
LTYPE
  5
25
100
AcDbSymbolTableRecord
100
AcDbLinetypeTableRecord
  2
DOT
 70
    64
  3
Dot . . . .
 72
    65
 73
     2
 40
0.25
 49
0.0
 74
     0
 49
-0.25
 74
     0
  0
LTYPE
  5
26
100
AcDbSymbolTableRecord
100
AcDbLinetypeTableRecord
  2
DASHDOT
 70
    64
  3
Dash dot __ . __ .
 72
    65
 73
     4
 40
1.0
 49
0.5
 74
     0
 49
-0.25
 74
     0
 49
0.0
 74
     0
 49
-0.25
 74
     0
  0
LTYPE
  5
27
100
AcDbSymbolTableRecord
100
AcDbLinetypeTableRecord
  2
DIVIDE
 70
    64
  3
Divide __ . . __ . .
 72
    65
 73
     6
 40
1.25
 49
0.5
 74
     0
 49
-0.25
 74
     0
 49
0.0
 74
     0
 49
-0.25
 74
     0
 49
0.0
 74
     0
 49
-0.25
 74
     0
  0
ENDTAB
  0
TABLE
  2
LAYER
  5
2
100
AcDbSymbolTable
 70
     3
  0
LAYER
  5
14
100
AcDbSymbolTableRecord
100
AcDbLayerTableRecord
  2
0
 70
     0
 62
     7
  6
Continuous
290
     1
370
    -3
390
1D
  0
LAYER
  5
29
100
AcDbSymbolTableRecord
100
AcDbLayerTableRecord
  2
LAYER01
 70
     0
 62
     7
  6
Continuous
290
     1
370
    -3
390
1D
  0
LAYER
  5
2B
100
AcDbSymbolTableRecord
100
AcDbLayerTableRecord
  2
LAYER22
 70
     0
 62
     7
  6
Continuous
290
     1
370
    -3
390
1D
  0
ENDTAB
  0
TABLE
  2
STYLE
  5
3
100
AcDbSymbolTable
 70
     1
  0
STYLE
  5
17
100
AcDbSymbolTableRecord
100
AcDbTextStyleTableRecord
  2
Standard
 70
     0
 40
0.0
 41
1.0
 50
0.0
 71
     0
 42
0.0
  3
txt
  4

  0
ENDTAB
  0
TABLE
  2
VIEW
  5
5
100
AcDbSymbolTable
 70
     0
  0
ENDTAB
  0
TABLE
  2
UCS
  5
6
100
AcDbSymbolTable
 70
     0
  0
ENDTAB
  0
TABLE
  2
APPID
  5
8
100
AcDbSymbolTable
 70
     1
  0
APPID
  5
16
100
AcDbSymbolTableRecord
100
AcDbRegAppTableRecord
  2
ACAD
 70
     0
  0
ENDTAB
  0
TABLE
  2
DIMSTYLE
  5
9
100
AcDbSymbolTable
 70
     1
100
AcDbDimStyleTable
 71
     0
  0
DIMSTYLE
105
18
100
AcDbSymbolTableRecord
100
AcDbDimStyleTableRecord
  2
Standard
 70
     0
  3

  4

 40
1.0
 41
0.18
 42
0.0625
 43
0.38
 44
0.18
 45
0.0
 46
0.0
 47
0.0
 48
0.0
 71
     0
 72
     0
 73
     1
 74
     1
 75
     0
 76
     0
 77
     0
 78
     0
 79
     0
140
0.18
141
0.09
142
0.0
143
25.4
144
1.0
145
0.0
146
1.0
147
0.09
148
0.0
170
     0
171
     2
172
     0
173
     0
174
     0
175
     0
176
     0
177
     0
178
     0
179
     0
271
     4
272
     4
273
     2
274
     2
275
     0
276
     0
277
     2
278
    46
279
     0
280
     0
281
     0
282
     0
283
     1
284
     0
285
     0
286
     0
288
     0
289
     3
340
17
341
0
342
0
343
0
344
0
371
    -2
372
    -2
  0
ENDTAB
  0
TABLE
  2
BLOCK_RECORD
  5
1
100
AcDbSymbolTable
 70
     0
  0
BLOCK_RECORD
  5
A
100
AcDbSymbolTableRecord
100
AcDbBlockTableRecord
  2
*MODEL_SPACE
340
20
  0
BLOCK_RECORD
  5
B
100
AcDbSymbolTableRecord
100
AcDbBlockTableRecord
  2
*PAPER_SPACE
340
21
  0
ENDTAB
  0
ENDSEC
  0
SECTION
  2
BLOCKS
  0
BLOCK
  5
D
100
AcDbEntity
  8
0
390
0
100
AcDbBlockBegin
  2
*MODEL_SPACE
 70
     0
 10
0.0
 20
0.0
 30
0.0
  3
*MODEL_SPACE
  1

  0
ENDBLK
  5
E
100
AcDbEntity
  8
0
390
0
100
AcDbBlockEnd
  0
BLOCK
  5
F
100
AcDbEntity
 67
     1
  8
0
390
0
100
AcDbBlockBegin
  2
*PAPER_SPACE
 70
     0
 10
0.0
 20
0.0
 30
0.0
  3
*PAPER_SPACE
  1

  0
ENDBLK
  5
10
100
AcDbEntity
 67
     1
  8
0
390
0
100
AcDbBlockEnd
  0
ENDSEC
  0
SECTION
  2
ENTITIES
  0
MTEXT
  5
28
100
AcDbEntity
  8
LAYER01
390
0
 62
     2
100
AcDbMText
 10
-748.765625
 20
1322.0
 30
0.0
 40
11.25
 41
0.0
 71
     7
 72
     1
  1
UNO 12
 11
1.0
 21
0.0
 31
0.0
 73
     1
 44
1.333333
  0
LWPOLYLINE
  5
2A
100
AcDbEntity
  8
LAYER22
370
    13
390
0
  6
Continuous
 62
     5
100
AcDbPolyline
 90
        2
 70
     0
 10
-615.765625
 20
1111.0
 10
-315.765625
 20
1111.0
  0
LWPOLYLINE
  5
2C
100
AcDbEntity
  8
LAYER22
370
    18
390
0
  6
Continuous
 62
     1
100
AcDbPolyline
 90
        2
 70
     0
 10
-615.765686
 20
1113.5
 10
-615.765686
 20
1103.5
  0
LWPOLYLINE
  5
2D
100
AcDbEntity
  8
LAYER22
370
    18
390
0
  6
Continuous
 62
     1
100
AcDbPolyline
 90
        2
 70
     0
 10
-315.765656
 20
1113.5
 10
-315.765656
 20
1103.5
  0
MTEXT
  5
2E
100
AcDbEntity
  8
LAYER22
390
0
 62
     2
100
AcDbMText
 10
-465.765625
 20
1115.166626
 30
0.0
 40
11.25
 41
0.0
 71
     8
 72
     1
  1
300
 11
1.0
 21
0.0
 31
0.0
 73
     1
 44
1.333333
  0
LWPOLYLINE
  5
2F
100
AcDbEntity
  8
LAYER22
370
    18
390
0
  6
Continuous
 62
     1
100
AcDbPolyline
 90
        4
 70
     1
 10
-615.765625
 20
-1410.0
 10
-615.765625
 20
1218.0
 10
-315.765625
 20
1218.0
 10
-315.765625
 20
-1410.0
  0
LWPOLYLINE
  5
30
100
AcDbEntity
  8
LAYER22
370
    18
390
0
  6
Continuous
 62
     1
100
AcDbPolyline
 90
        4
 70
     1
 10
-315.765625
 20
-1410.0
 10
-315.765625
 20
1218.0
 10
-285.765625
 20
1218.0
 10
-285.765625
 20
-1410.0
  0
LWPOLYLINE
  5
31
100
AcDbEntity
  8
LAYER22
370
    18
390
0
  6
Continuous
 62
     1
100
AcDbPolyline
 90
        4
 70
     1
 10
-645.765625
 20
-1410.0
 10
-645.765625
 20
1218.0
 10
-615.765625
 20
1218.0
 10
-615.765625
 20
-1410.0
  0
LWPOLYLINE
  5
32
100
AcDbEntity
  8
LAYER22
370
    13
390
0
  6
DASHDOT
 62
     5
100
AcDbPolyline
 90
        2
 70
     0
 10
-465.765625
 20
1270.0
 10
-465.765625
 20
-1410.0
  0
LWPOLYLINE
  5
33
100
AcDbEntity
  8
LAYER22
370
    25
390
0
  6
Continuous
 62
     2
100
AcDbPolyline
 90
       23
 70
     0
 10
-465.765625
 20
1270.0
 10
-456.428223
 20
1269.999512
 10
-456.428223
 20
1268.384766
 10
-446.838379
 20
1268.384766
 42
-0.414214
 10
-445.223145
 20
1266.769531
 10
-445.223145
 20
1244.056641
 10
-444.489258
 20
1239.895508
 42
-0.466313
 10
-446.080078
 20
1237.999878
 10
-456.781738
 20
1238.0
 42
-0.469821
 10
-458.36908
 20
1239.914185
 10
-457.588867
 20
1244.056641
 10
-456.57959
 20
1244.056641
 10
-456.57959
 20
1240.725586
 10
-455.873047
 20
1240.019043
 10
-450.320801
 20
1240.019043
 10
-449.614258
 20
1240.725586
 10
-449.614258
 20
1244.056641
 10
-447.242188
 20
1244.056641
 10
-447.242188
 20
1263.337402
 42
0.414214
 10
-450.270508
 20
1266.365723
 10
-459.355469
 20
1266.365723
 10
-459.355469
 20
1267.879883
 10
-465.765625
 20
1267.879883
  0
LWPOLYLINE
  5
34
100
AcDbEntity
  8
LAYER22
370
    25
390
0
  6
Continuous
 62
     2
100
AcDbPolyline
 90
       23
 70
     0
 10
-465.765625
 20
1270.0
 10
-475.103027
 20
1269.999512
 10
-475.103027
 20
1268.384766
 10
-484.692871
 20
1268.384766
 42
0.414214
 10
-486.308105
 20
1266.769531
 10
-486.308105
 20
1244.056641
 10
-487.041992
 20
1239.895508
 42
0.466313
 10
-485.451172
 20
1237.999878
 10
-474.749512
 20
1238.0
 42
0.469821
 10
-473.16217
 20
1239.914185
 10
-473.942383
 20
1244.056641
 10
-474.95166
 20
1244.056641
 10
-474.95166
 20
1240.725586
 10
-475.658203
 20
1240.019043
 10
-481.210449
 20
1240.019043
 10
-481.916992
 20
1240.725586
 10
-481.916992
 20
1244.056641
 10
-484.289063
 20
1244.056641
 10
-484.289063
 20
1263.337402
 42
-0.414214
 10
-481.260742
 20
1266.365723
 10
-472.175781
 20
1266.365723
 10
-472.175781
 20
1267.879883
 10
-465.765625
 20
1267.879883
  0
LWPOLYLINE
  5
35
100
AcDbEntity
  8
LAYER22
370
    18
390
0
  6
Continuous
 62
     1
100
AcDbPolyline
 90
        6
 70
     1
 10
-460.766602
 20
1267.879883
 10
-470.764648
 20
1267.879883
 10
-467.807617
 20
1270.879883
 10
-467.807617
 20
1280.879883
 10
-463.807617
 20
1280.879883
 10
-463.807617
 20
1270.879883
  0
LWPOLYLINE
  5
36
100
AcDbEntity
  8
LAYER22
370
    18
390
0
  6
Continuous
 62
     1
100
AcDbPolyline
 90
        2
 70
     0
 10
-467.807617
 20
1270.879883
 10
-463.807617
 20
1270.879883
  0
LWPOLYLINE
  5
37
100
AcDbEntity
  8
LAYER22
370
    18
390
0
  6
Continuous
 62
     1
100
AcDbPolyline
 90
       22
 70
     0
 10
-467.807617
 20
1280.879883
 10
-463.95752
 20
1283.129883
 10
-467.514893
 20
1285.270508
 10
-464.25293
 20
1287.560303
 10
-467.19873
 20
1290.012207
 10
-464.56958
 20
1292.311035
 10
-466.890625
 20
1294.634766
 10
-464.872803
 20
1296.860352
 10
-466.605713
 20
1298.905029
 10
-465.131104
 20
1300.732178
 10
-466.375732
 20
1302.355957
 10
-465.313721
 20
1303.473877
 10
-466.229004
 20
1304.557373
 10
-465.455811
 20
1305.602051
 10
-466.094971
 20
1306.570068
 10
-465.56958
 20
1307.311768
 10
-465.986572
 20
1308.192383
 10
-465.665039
 20
1308.743408
 10
-465.925049
 20
1309.116455
 10
-465.726807
 20
1309.66748
 10
-465.863525
 20
1310.039063
 10
-465.765625
 20
1310.870117
  0
LWPOLYLINE
  5
38
100
AcDbEntity
  8
LAYER22
370
    18
390
0
  6
Continuous
 62
     1
100
AcDbPolyline
 90
        4
 70
     1
 10
-481.462402
 20
1264.246094
 10
-475.405762
 20
1264.246094
 10
-475.405762
 20
1240.019043
 10
-481.462402
 20
1240.019043
  0
LWPOLYLINE
  5
39
100
AcDbEntity
  8
LAYER22
370
    18
390
0
  6
Continuous
 62
     1
100
AcDbPolyline
 90
        4
 70
     1
 10
-475.405762
 20
1258.693848
 10
-456.125
 20
1258.693848
 10
-456.125
 20
1245.570801
 10
-475.405762
 20
1245.570801
  0
LWPOLYLINE
  5
3A
100
AcDbEntity
  8
LAYER22
370
    18
390
0
  6
Continuous
 62
     1
100
AcDbPolyline
 90
        4
 70
     1
 10
-456.125
 20
1264.246094
 10
-450.068359
 20
1264.246094
 10
-450.068359
 20
1240.019043
 10
-456.125
 20
1240.019043
  0
LWPOLYLINE
  5
3B
100
AcDbEntity
  8
LAYER22
370
    18
390
0
  6
Continuous
 62
     1
100
AcDbPolyline
 90
        4
 70
     1
 10
-460.718262
 20
1245.570801
 10
-460.718262
 20
1218.0
 10
-470.812988
 20
1218.0
 10
-470.812988
 20
1245.570801
  0
LWPOLYLINE
  5
3C
100
AcDbEntity
  8
LAYER22
370
    25
390
0
  6
Continuous
 62
     2
100
AcDbPolyline
 90
        4
 70
     1
 10
-443.765625
 20
1238.0
 10
-443.765625
 20
1270.0
 10
-343.765625
 20
1270.0
 10
-343.765625
 20
1238.0
  0
LWPOLYLINE
  5
3D
100
AcDbEntity
  8
LAYER22
370
    25
390
0
  6
Continuous
 62
     2
100
AcDbPolyline
 90
        4
 70
     1
 10
-587.765625
 20
1238.0
 10
-587.765625
 20
1270.0
 10
-487.765625
 20
1270.0
 10
-487.765625
 20
1238.0
  0
LWPOLYLINE
  5
3E
100
AcDbEntity
  8
LAYER22
370
    25
390
0
  6
Continuous
 62
     2
100
AcDbPolyline
 90
       16
 70
     1
 10
92.730057
 20
923.694702
 10
352.534882
 20
1073.699585
 10
355.034973
 20
1069.369507
 10
348.972839
 20
1065.869385
 10
348.427429
 20
1066.814087
 42
1.0
 10
350.503174
 20
1063.218872
 10
349.97287
 20
1064.137329
 10
356.035004
 20
1067.637451
 10
358.535065
 20
1063.307373
 10
98.730255
 20
913.302551
 10
96.230171
 20
917.632629
 10
102.229706
 20
921.096619
 10
102.759995
 20
920.178162
 42
1.035421
 10
100.684242
 20
923.773315
 10
101.229668
 20
922.828613
 10
95.230141
 20
919.364624
  0
LWPOLYLINE
  5
3F
100
AcDbEntity
  8
LAYER22
370
    25
390
0
  6
Continuous
 62
     2
100
AcDbPolyline
 90
       22
 70
     0
 10
366.601685
 20
1071.546265
 10
361.777954
 20
1071.546143
 10
349.718018
 20
1064.583496
 10
350.498291
 20
1063.231812
 42
-1.0
 10
348.437653
 20
1066.80127
 10
349.217987
 20
1065.449463
 10
358.465973
 20
1070.788574
 10
352.223236
 20
1073.171143
 10
352.579193
 20
1074.105225
 10
359.582153
 20
1071.433105
 10
361.144165
 20
1072.334961
 10
361.21051
 20
1076.227539
 10
359.125519
 20
1077.642578
 10
359.125977
 20
1079.595581
 10
359.622559
 20
1080.095581
 10
366.601563
 20
1080.095459
 10
366.601563
 20
1079.095581
 10
360.125977
 20
1079.095581
 10
360.091827
 20
1078.104004
 10
362.144104
 20
1076.477417
 10
362.144165
 20
1072.546265
 10
366.601685
 20
1072.546265
  0
LWPOLYLINE
  5
40
100
AcDbEntity
  8
LAYER22
370
    25
390
0
  6
Continuous
 62
     2
100
AcDbPolyline
 90
       22
 70
     0
 10
366.601685
 20
1071.546265
 10
371.425415
 20
1071.546387
 10
383.485596
 20
1064.584473
 10
382.705322
 20
1063.232788
 42
1.0
 10
384.766235
 20
1066.802124
 10
383.985565
 20
1065.450317
 10
374.737946
 20
1070.789063
 10
380.980072
 20
1073.171753
 10
380.623627
 20
1074.105957
 10
373.621704
 20
1071.433472
 10
372.059204
 20
1072.335083
 10
371.992249
 20
1076.227783
 10
374.077179
 20
1077.642822
 10
374.077148
 20
1079.595825
 10
373.580078
 20
1080.095703
 10
366.601563
 20
1080.095459
 10
366.601563
 20
1079.095581
 10
373.077148
 20
1079.095947
 10
373.111359
 20
1078.10437
 10
371.059143
 20
1076.477783
 10
371.059204
 20
1072.546509
 10
366.601685
 20
1072.546265
  0
LWPOLYLINE
  5
41
100
AcDbEntity
  8
LAYER22
370
    25
390
0
  6
Continuous
 62
     2
100
AcDbPolyline
 90
       22
 70
     0
 10
84.652214
 20
915.4823
 10
89.475945
 20
915.482361
 10
101.535896
 20
922.445007
 10
100.7556
 20
923.796692
 42
-1.0
 10
102.816261
 20
920.227295
 10
102.035912
 20
921.579041
 10
92.787941
 20
916.23999
 10
99.030655
 20
913.857422
 10
98.674713
 20
912.92334
 10
91.671745
 20
915.595459
 10
90.109749
 20
914.693604
 10
90.043396
 20
910.801025
 10
92.12838
 20
909.386047
 10
92.127922
 20
907.433044
 10
91.631348
 20
906.933044
 10
84.652344
 20
906.933105
 10
84.652328
 20
907.933044
 10
91.127914
 20
907.932983
 10
91.162079
 20
908.924561
 10
89.10981
 20
910.551147
 10
89.109749
 20
914.4823
 10
84.652229
 20
914.482361
  0
LWPOLYLINE
  5
42
100
AcDbEntity
  8
LAYER22
370
    25
390
0
  6
Continuous
 62
     2
100
AcDbPolyline
 90
       22
 70
     0
 10
84.652214
 20
915.4823
 10
79.828484
 20
915.482178
 10
67.768318
 20
922.444092
 10
68.548569
 20
923.795837
 42
1.0
 10
66.487663
 20
920.22644
 10
67.268333
 20
921.578247
 10
76.515968
 20
916.239563
 10
70.273819
 20
913.856812
 10
70.63028
 20
912.922668
 10
77.632195
 20
915.595032
 10
79.19471
 20
914.693481
 10
79.261658
 20
910.800842
 10
77.17672
 20
909.385681
 10
77.17675
 20
907.432739
 10
77.673828
 20
906.9328
 10
84.652344
 20
906.933105
 10
84.652328
 20
907.933044
 10
78.176743
 20
907.932556
 10
78.142548
 20
908.924194
 10
80.194771
 20
910.550781
 10
80.19471
 20
914.482117
 10
84.652229
 20
914.482361
  0
LWPOLYLINE
  5
43
100
AcDbEntity
  8
LAYER22
370
    25
390
0
  6
Continuous
 62
     2
100
AcDbPolyline
 90
       11
 70
     0
 10
-59.176758
 20
994.487305
 10
-53.46875
 20
992.470459
 10
-43.092773
 20
986.421753
 10
-42.313477
 20
987.773438
 42
-0.99997
 10
-44.373917
 20
984.203796
 10
-43.592773
 20
985.555786
 10
-52.84082
 20
990.894531
 10
-51.782227
 20
984.297363
 10
-52.770508
 20
984.138916
 10
-53.957031
 20
991.538818
 10
-59.544922
 20
993.557251
  0
LWPOLYLINE
  5
44
100
AcDbEntity
  8
LAYER22
370
    25
390
0
  6
Continuous
 62
     2
100
AcDbPolyline
 90
       11
 70
     0
 10
-59.176758
 20
994.487305
 10
-63.514648
 20
995.826172
 10
-63.514648
 20
1007.0
 10
-61.954102
 20
1007.000122
 42
1.0
 10
-66.075195
 20
1007.000366
 10
-64.514648
 20
1007.000122
 10
-64.514648
 20
996.322144
 10
-69.700195
 20
1000.536865
 10
-70.331055
 20
999.761108
 10
-64.514648
 20
995.033203
 10
-59.544922
 20
993.557251
  0
LWPOLYLINE
  5
45
100
AcDbEntity
  8
LAYER22
370
    18
390
0
  6
Continuous
 62
     1
100
AcDbPolyline
 90
        6
 70
     1
 10
-58.0
 20
1033.079102
 10
-58.0
 20
1023.081055
 10
-61.0
 20
1026.038086
 10
-71.0
 20
1026.038086
 10
-71.0
 20
1030.038086
 10
-61.0
 20
1030.038086
  0
LWPOLYLINE
  5
46
100
AcDbEntity
  8
LAYER22
370
    18
390
0
  6
Continuous
 62
     1
100
AcDbPolyline
 90
        2
 70
     0
 10
-61.0
 20
1026.038086
 10
-61.0
 20
1030.038086
  0
LWPOLYLINE
  5
47
100
AcDbEntity
  8
LAYER22
370
    18
390
0
  6
Continuous
 62
     1
100
AcDbPolyline
 90
       22
 70
     0
 10
-71.0
 20
1026.038086
 10
-73.25
 20
1029.888184
 10
-75.390625
 20
1026.330811
 10
-77.68042
 20
1029.592773
 10
-80.132324
 20
1026.646973
 10
-82.431152
 20
1029.276123
 10
-84.754883
 20
1026.955078
 10
-86.980469
 20
1028.9729
 10
-89.025146
 20
1027.23999
 10
-90.852295
 20
1028.7146
 10
-92.476074
 20
1027.469971
 10
-93.593994
 20
1028.531982
 10
-94.67749
 20
1027.616699
 10
-95.722168
 20
1028.389893
 10
-96.690186
 20
1027.750732
 10
-97.431885
 20
1028.276123
 10
-98.3125
 20
1027.859131
 10
-98.863525
 20
1028.180664
 10
-99.236572
 20
1027.920654
 10
-99.787598
 20
1028.118896
 10
-100.15918
 20
1027.982178
 10
-100.990234
 20
1028.080078
  0
LWPOLYLINE
  5
48
100
AcDbEntity
  8
LAYER22
370
    25
390
0
  6
Continuous
 62
     2
100
AcDbPolyline
 90
       16
 70
     1
 10
76.573479
 20
923.695984
 10
-46.416431
 20
994.671204
 10
-48.915562
 20
990.340576
 10
-42.852676
 20
986.841797
 10
-42.307457
 20
987.78656
 42
-1.0
 10
-44.382416
 20
984.190979
 10
-43.852329
 20
985.109558
 10
-49.915211
 20
988.608337
 10
-52.414337
 20
984.27771
 10
70.575577
 20
913.30249
 10
73.074707
 20
917.633118
 10
67.074409
 20
921.095764
 10
66.544327
 20
920.177185
 42
-1.035421
 10
68.619286
 20
923.772827
 10
68.074066
 20
922.828003
 10
74.074356
 20
919.365356
  0
LWPOLYLINE
  5
49
100
AcDbEntity
  8
LAYER22
370
    18
390
0
  6
DASHED
 62
     1
100
AcDbPolyline
 90
        4
 70
     1
 10
213.625
 20
1002.51416
 10
213.625
 20
1008.51416
 10
237.625
 20
1008.51416
 10
237.625
 20
1002.51416
  0
LWPOLYLINE
  5
4A
100
AcDbEntity
  8
LAYER22
370
    18
390
0
  6
DASHED
 62
     1
100
AcDbPolyline
 90
        4
 70
     1
 10
219.125
 20
1002.51416
 10
232.125
 20
1002.51416
 10
232.125
 20
984.51416
 10
219.125
 20
984.51416
  0
LWPOLYLINE
  5
4B
100
AcDbEntity
  8
LAYER22
370
    18
390
0
  6
DASHED
 62
     1
100
AcDbPolyline
 90
        4
 70
     1
 10
213.625
 20
978.51416
 10
213.625
 20
984.51416
 10
237.625
 20
984.51416
 10
237.625
 20
978.51416
  0
CIRCLE
  5
4C
100
AcDbEntity
  8
LAYER22
390
0
  6
Continuous
 62
     1
100
AcDbCircle
 10
225.625
 20
993.51416
 30
0.0
 40
6.0
  0
CIRCLE
  5
4D
100
AcDbEntity
  8
LAYER22
390
0
  6
Continuous
 62
     1
100
AcDbCircle
 10
225.625
 20
993.51416
 30
0.0
 40
5.0
  0
LWPOLYLINE
  5
4E
100
AcDbEntity
  8
LAYER22
370
    18
390
0
  6
DASHED
 62
     1
100
AcDbPolyline
 90
        2
 70
     0
 10
223.125
 20
989.184082
 10
228.125
 20
997.84436
  0
LWPOLYLINE
  5
4F
100
AcDbEntity
  8
LAYER22
370
    25
390
0
  6
Continuous
 62
     2
100
AcDbPolyline
 90
       22
 70
     0
 10
930.496216
 20
1071.547974
 10
925.672485
 20
1071.547852
 10
913.612549
 20
1064.585205
 10
914.392822
 20
1063.233521
 42
-1.0
 10
912.332153
 20
1066.802979
 10
913.112549
 20
1065.451172
 10
922.360474
 20
1070.790283
 10
916.117798
 20
1073.172852
 10
916.473694
 20
1074.106934
 10
923.476685
 20
1071.434814
 10
925.038696
 20
1072.33667
 10
925.105042
 20
1076.229248
 10
923.020081
 20
1077.644287
 10
923.020508
 20
1079.59729
 10
923.51709
 20
1080.09729
 10
930.496094
 20
1080.097168
 10
930.496094
 20
1079.09729
 10
924.020508
 20
1079.09729
 10
923.986328
 20
1078.105713
 10
926.038635
 20
1076.479126
 10
926.038696
 20
1072.547974
 10
930.496216
 20
1072.547974
  0
LWPOLYLINE
  5
50
100
AcDbEntity
  8
LAYER22
370
    25
390
0
  6
Continuous
 62
     2
100
AcDbPolyline
 90
       22
 70
     0
 10
930.496216
 20
1071.547974
 10
935.319946
 20
1071.548096
 10
947.380127
 20
1064.586182
 10
946.599854
 20
1063.234497
 42
1.0
 10
948.660767
 20
1066.803833
 10
947.880127
 20
1065.452026
 10
938.632446
 20
1070.790771
 10
944.874634
 20
1073.173462
 10
944.518127
 20
1074.107666
 10
937.516235
 20
1071.435181
 10
935.953735
 20
1072.336792
 10
935.88678
 20
1076.229492
 10
937.971741
 20
1077.644531
 10
937.97168
 20
1079.597534
 10
937.474609
 20
1080.097412
 10
930.496094
 20
1080.097168
 10
930.496094
 20
1079.09729
 10
936.97168
 20
1079.097656
 10
937.005859
 20
1078.106079
 10
934.953674
 20
1076.479492
 10
934.953735
 20
1072.548218
 10
930.496216
 20
1072.547974
  0
LWPOLYLINE
  5
51
100
AcDbEntity
  8
LAYER22
370
    18
390
0
  6
Continuous
 62
     1
100
AcDbPolyline
 90
        6
 70
     1
 10
1403.0
 20
987.98584
 10
1403.0
 20
997.983887
 10
1406.0
 20
995.026855
 10
1416.0
 20
995.026855
 10
1416.0
 20
991.026855
 10
1406.0
 20
991.026855
  0
LWPOLYLINE
  5
52
100
AcDbEntity
  8
LAYER22
370
    18
390
0
  6
Continuous
 62
     1
100
AcDbPolyline
 90
        2
 70
     0
 10
1406.0
 20
995.026855
 10
1406.0
 20
991.026855
  0
LWPOLYLINE
  5
53
100
AcDbEntity
  8
LAYER22
370
    18
390
0
  6
Continuous
 62
     1
100
AcDbPolyline
 90
       22
 70
     0
 10
1416.0
 20
995.026855
 10
1418.25
 20
991.176758
 10
1420.390625
 20
994.734131
 10
1422.68042
 20
991.472168
 10
1425.132324
 20
994.417969
 10
1427.431152
 20
991.788818
 10
1429.754883
 20
994.109863
 10
1431.980469
 20
992.092041
 10
1434.025146
 20
993.824951
 10
1435.852295
 20
992.350342
 10
1437.476074
 20
993.594971
 10
1438.593994
 20
992.532959
 10
1439.67749
 20
993.448242
 10
1440.722168
 20
992.675049
 10
1441.690186
 20
993.314209
 10
1442.431885
 20
992.788818
 10
1443.3125
 20
993.205811
 10
1443.863525
 20
992.884277
 10
1444.236572
 20
993.144287
 10
1444.787598
 20
992.946045
 10
1445.15918
 20
993.082764
 10
1445.990234
 20
992.984863
  0
LWPOLYLINE
  5
54
100
AcDbEntity
  8
LAYER22
370
    25
390
0
  6
Continuous
 62
     2
100
AcDbPolyline
 90
       18
 70
     0
 10
1403.0
 20
992.984863
 10
1403.0
 20
999.664063
 42
-0.268065
 10
1404.25
 20
1001.829041
 10
1411.825195
 20
1006.202637
 10
1412.075195
 20
1006.635742
 10
1412.075195
 20
1008.684814
 10
1430.0
 20
1008.684814
 10
1430.0
 20
1006.684814
 10
1427.5
 20
1006.684814
 10
1427.5
 20
1007.284668
 10
1422.326172
 20
1007.284668
 10
1422.326172
 20
1000.584961
 10
1420.92627
 20
1000.584961
 10
1420.92627
 20
1007.284668
 10
1413.475098
 20
1007.284668
 10
1413.475098
 20
1004.384277
 10
1406.5
 20
1000.356934
 10
1406.5
 20
992.984863
  0
LWPOLYLINE
  5
55
100
AcDbEntity
  8
LAYER22
370
    25
390
0
  6
Continuous
 62
     2
100
AcDbPolyline
 90
       18
 70
     0
 10
1403.0
 20
992.984863
 10
1403.0
 20
986.305664
 42
0.268065
 10
1404.25
 20
984.140686
 10
1411.825195
 20
979.76709
 10
1412.075195
 20
979.333984
 10
1412.075195
 20
977.284912
 10
1430.0
 20
977.284912
 10
1430.0
 20
979.284912
 10
1427.5
 20
979.284912
 10
1427.5
 20
978.685059
 10
1422.326172
 20
978.685059
 10
1422.326172
 20
985.384766
 10
1420.92627
 20
985.384766
 10
1420.92627
 20
978.685059
 10
1413.475098
 20
978.685059
 10
1413.475098
 20
981.585449
 10
1406.5
 20
985.612793
 10
1406.5
 20
992.984863
  0
LWPOLYLINE
  5
56
100
AcDbEntity
  8
LAYER22
370
    25
390
0
  6
Continuous
 62
     2
100
AcDbPolyline
 90
       13
 70
     0
 10
1205.546875
 20
992.890137
 10
1205.546875
 20
1002.712769
 10
1211.630371
 20
1006.257202
 42
0.767315
 10
1211.380371
 20
1007.190186
 10
1198.571289
 20
1007.190186
 10
1198.571289
 20
1006.59021
 10
1196.071289
 20
1006.59021
 10
1196.071289
 20
1008.59021
 10
1215.672363
 20
1008.59021
 42
-0.767332
 10
1216.047363
 20
1007.190674
 10
1208.59668
 20
1002.889282
 42
0.267954
 10
1207.346558
 20
1000.724121
 10
1207.34668
 20
992.890137
  0
LWPOLYLINE
  5
57
100
AcDbEntity
  8
LAYER22
370
    25
390
0
  6
Continuous
 62
     2
100
AcDbPolyline
 90
       13
 70
     0
 10
1205.546875
 20
992.890137
 10
1205.546875
 20
983.067505
 10
1211.630371
 20
979.523071
 42
-0.767315
 10
1211.380371
 20
978.590088
 10
1198.571289
 20
978.590088
 10
1198.571289
 20
979.190063
 10
1196.071289
 20
979.190063
 10
1196.071289
 20
977.190063
 10
1215.672363
 20
977.190063
 42
0.767332
 10
1216.047363
 20
978.5896
 10
1208.59668
 20
982.890991
 42
-0.267954
 10
1207.346558
 20
985.056152
 10
1207.34668
 20
992.890137
  0
LWPOLYLINE
  5
58
100
AcDbEntity
  8
LAYER22
370
    13
390
0
  6
DASHDOT
 62
     5
100
AcDbPolyline
 90
        2
 70
     0
 10
-70.0
 20
993.0
 10
1430.0
 20
993.0
  0
LWPOLYLINE
  5
59
100
AcDbEntity
  8
LAYER22
370
    25
390
0
  6
Continuous
 62
     2
100
AcDbPolyline
 90
       10
 70
     1
 10
1080.546875
 20
1005.390137
 10
1205.546875
 20
1005.390137
 10
1205.546875
 20
980.390137
 10
1080.546875
 20
980.390137
 10
1080.546875
 20
991.890137
 10
1087.474609
 20
991.890137
 10
1087.474609
 20
990.82959
 42
1.035178
 10
1087.474609
 20
994.980957
 10
1087.474609
 20
993.890137
 10
1080.546875
 20
993.890137
  0
LWPOLYLINE
  5
5A
100
AcDbEntity
  8
LAYER22
370
    25
390
0
  6
Continuous
 62
     2
100
AcDbPolyline
 90
       27
 70
     1
 10
1057.516602
 20
999.207764
 42
-1.035231
 10
1059.592285
 20
1002.803345
 10
1058.796875
 20
1001.425415
 10
1068.043945
 20
996.086548
 10
1066.983398
 20
1002.683228
 10
1067.970703
 20
1002.841919
 10
1069.160645
 20
995.441895
 10
1072.638184
 20
993.338257
 10
1077.672852
 20
993.338257
 10
1079.726074
 20
1005.488525
 10
1080.712402
 20
1005.321899
 10
1078.69873
 20
993.405151
 10
1087.473633
 20
993.405151
 10
1087.473633
 20
994.981079
 42
-1.035174
 10
1087.473633
 20
990.829224
 10
1087.473633
 20
992.405151
 10
1078.69873
 20
992.405151
 10
1080.712402
 20
980.488525
 10
1079.726074
 20
980.321899
 10
1077.684082
 20
992.405151
 10
1072.388184
 20
992.405151
 10
1072.138184
 20
992.47229
 10
1068.660645
 20
994.575806
 10
1061.658203
 20
991.903564
 10
1061.301758
 20
992.837769
 10
1067.544434
 20
995.220215
 10
1058.238281
 20
1000.593262
  0
LWPOLYLINE
  5
5B
100
AcDbEntity
  8
LAYER22
370
    18
390
0
  6
DASHED
 62
     1
100
AcDbPolyline
 90
        4
 70
     1
 10
1099.25
 20
1001.905273
 10
1099.25
 20
1007.905273
 10
1123.25
 20
1007.905273
 10
1123.25
 20
1001.905273
  0
LWPOLYLINE
  5
5C
100
AcDbEntity
  8
LAYER22
370
    18
390
0
  6
DASHED
 62
     1
100
AcDbPolyline
 90
        4
 70
     1
 10
1104.75
 20
1001.905273
 10
1117.75
 20
1001.905273
 10
1117.75
 20
983.905273
 10
1104.75
 20
983.905273
  0
LWPOLYLINE
  5
5D
100
AcDbEntity
  8
LAYER22
370
    18
390
0
  6
DASHED
 62
     1
100
AcDbPolyline
 90
        4
 70
     1
 10
1099.25
 20
977.905273
 10
1099.25
 20
983.905273
 10
1123.25
 20
983.905273
 10
1123.25
 20
977.905273
  0
CIRCLE
  5
5E
100
AcDbEntity
  8
LAYER22
390
0
  6
Continuous
 62
     1
100
AcDbCircle
 10
1111.25
 20
992.905273
 30
0.0
 40
6.0
  0
CIRCLE
  5
5F
100
AcDbEntity
  8
LAYER22
390
0
  6
Continuous
 62
     1
100
AcDbCircle
 10
1111.25
 20
992.905273
 30
0.0
 40
5.0
  0
LWPOLYLINE
  5
60
100
AcDbEntity
  8
LAYER22
370
    18
390
0
  6
DASHED
 62
     1
100
AcDbPolyline
 90
        2
 70
     0
 10
1108.75
 20
988.575195
 10
1113.75
 20
997.235474
  0
LWPOLYLINE
  5
61
100
AcDbEntity
  8
LAYER22
370
    18
390
0
  6
DASHED
 62
     1
100
AcDbPolyline
 90
        4
 70
     1
 10
1164.25
 20
1001.905273
 10
1164.25
 20
1007.905273
 10
1188.25
 20
1007.905273
 10
1188.25
 20
1001.905273
  0
LWPOLYLINE
  5
62
100
AcDbEntity
  8
LAYER22
370
    18
390
0
  6
DASHED
 62
     1
100
AcDbPolyline
 90
        4
 70
     1
 10
1169.75
 20
1001.905273
 10
1182.75
 20
1001.905273
 10
1182.75
 20
983.905273
 10
1169.75
 20
983.905273
  0
LWPOLYLINE
  5
63
100
AcDbEntity
  8
LAYER22
370
    18
390
0
  6
DASHED
 62
     1
100
AcDbPolyline
 90
        4
 70
     1
 10
1164.25
 20
977.905273
 10
1164.25
 20
983.905273
 10
1188.25
 20
983.905273
 10
1188.25
 20
977.905273
  0
CIRCLE
  5
64
100
AcDbEntity
  8
LAYER22
390
0
  6
Continuous
 62
     1
100
AcDbCircle
 10
1176.25
 20
992.905273
 30
0.0
 40
6.0
  0
CIRCLE
  5
65
100
AcDbEntity
  8
LAYER22
390
0
  6
Continuous
 62
     1
100
AcDbCircle
 10
1176.25
 20
992.905273
 30
0.0
 40
5.0
  0
LWPOLYLINE
  5
66
100
AcDbEntity
  8
LAYER22
370
    18
390
0
  6
DASHED
 62
     1
100
AcDbPolyline
 90
        2
 70
     0
 10
1173.75
 20
988.575195
 10
1178.75
 20
997.235474
  0
LWPOLYLINE
  5
67
100
AcDbEntity
  8
LAYER22
370
    25
390
0
  6
Continuous
 62
     2
100
AcDbPolyline
 90
       10
 70
     1
 10
-70.0
 20
1000.0
 10
-70.0
 20
1055.0
 10
-58.0
 20
1055.0
 10
-58.0
 20
1000.0
 10
-63.0
 20
1000.0
 10
-63.0
 20
1006.928711
 10
-61.939453
 20
1006.928711
 42
1.034934
 10
-66.09082
 20
1006.928711
 10
-65.0
 20
1006.928711
 10
-65.0
 20
1000.0
  0
LWPOLYLINE
  5
68
100
AcDbEntity
  8
LAYER22
370
    18
390
0
  6
Continuous
 62
     1
100
AcDbPolyline
 90
        6
 70
     1
 10
-58.0
 20
1033.079102
 10
-58.0
 20
1023.081055
 10
-61.0
 20
1026.038086
 10
-71.0
 20
1026.038086
 10
-71.0
 20
1030.038086
 10
-61.0
 20
1030.038086
  0
LWPOLYLINE
  5
69
100
AcDbEntity
  8
LAYER22
370
    18
390
0
  6
Continuous
 62
     1
100
AcDbPolyline
 90
        2
 70
     0
 10
-61.0
 20
1026.038086
 10
-61.0
 20
1030.038086
  0
LWPOLYLINE
  5
6A
100
AcDbEntity
  8
LAYER22
370
    18
390
0
  6
Continuous
 62
     1
100
AcDbPolyline
 90
       22
 70
     0
 10
-71.0
 20
1026.038086
 10
-73.25
 20
1029.888184
 10
-75.390625
 20
1026.330811
 10
-77.68042
 20
1029.592773
 10
-80.132324
 20
1026.646973
 10
-82.431152
 20
1029.276123
 10
-84.754883
 20
1026.955078
 10
-86.980469
 20
1028.9729
 10
-89.025146
 20
1027.23999
 10
-90.852295
 20
1028.7146
 10
-92.476074
 20
1027.469971
 10
-93.593994
 20
1028.531982
 10
-94.67749
 20
1027.616699
 10
-95.722168
 20
1028.389893
 10
-96.690186
 20
1027.750732
 10
-97.431885
 20
1028.276123
 10
-98.3125
 20
1027.859131
 10
-98.863525
 20
1028.180664
 10
-99.236572
 20
1027.920654
 10
-99.787598
 20
1028.118896
 10
-100.15918
 20
1027.982178
 10
-100.990234
 20
1028.080078
  0
LWPOLYLINE
  5
6B
100
AcDbEntity
  8
LAYER22
370
    25
390
0
  6
Continuous
 62
     2
100
AcDbPolyline
 90
       16
 70
     1
 10
640.469177
 20
923.695679
 10
380.664337
 20
1073.700562
 10
378.164246
 20
1069.370483
 10
384.226379
 20
1065.870361
 10
384.77179
 20
1066.815063
 42
-1.0
 10
382.696045
 20
1063.219849
 10
383.226349
 20
1064.138306
 10
377.164215
 20
1067.638428
 10
374.664154
 20
1063.30835
 10
634.468994
 20
913.303528
 10
636.969055
 20
917.633606
 10
630.969543
 20
921.097595
 10
630.439209
 20
920.179138
 42
-1.035421
 10
632.514954
 20
923.774292
 10
631.969543
 20
922.82959
 10
637.969055
 20
919.365601
  0
LWPOLYLINE
  5
6C
100
AcDbEntity
  8
LAYER22
370
    25
390
0
  6
Continuous
 62
     2
100
AcDbPolyline
 90
       16
 70
     1
 10
656.628479
 20
923.696655
 10
916.43335
 20
1073.701538
 10
918.933411
 20
1069.37146
 10
912.871277
 20
1065.871338
 10
912.325867
 20
1066.81604
 42
1.0
 10
914.401611
 20
1063.220825
 10
913.871338
 20
1064.139282
 10
919.933411
 20
1067.639404
 10
922.433533
 20
1063.309326
 10
662.628662
 20
913.304504
 10
660.128601
 20
917.634583
 10
666.128113
 20
921.098572
 10
666.658447
 20
920.180115
 42
1.035421
 10
664.582703
 20
923.775269
 10
665.128113
 20
922.830566
 10
659.128601
 20
919.366577
  0
LWPOLYLINE
  5
6D
100
AcDbEntity
  8
LAYER22
370
    25
390
0
  6
Continuous
 62
     2
100
AcDbPolyline
 90
       22
 70
     0
 10
648.546753
 20
915.484009
 10
653.370483
 20
915.48407
 10
665.43042
 20
922.446716
 10
664.650146
 20
923.798401
 42
-1.0
 10
666.710815
 20
920.229004
 10
665.93042
 20
921.58075
 10
656.682495
 20
916.241699
 10
662.925171
 20
913.859131
 10
662.569275
 20
912.925049
 10
655.566284
 20
915.597168
 10
654.004272
 20
914.695313
 10
653.937927
 20
910.802734
 10
656.022888
 20
909.387756
 10
656.022461
 20
907.434753
 10
655.525879
 20
906.934753
 10
648.546875
 20
906.934814
 10
648.546875
 20
907.934753
 10
655.022461
 20
907.934692
 10
655.056641
 20
908.92627
 10
653.004333
 20
910.552856
 10
653.004272
 20
914.484009
 10
648.546753
 20
914.48407
  0
LWPOLYLINE
  5
6E
100
AcDbEntity
  8
LAYER22
370
    25
390
0
  6
Continuous
 62
     2
100
AcDbPolyline
 90
       22
 70
     0
 10
648.546753
 20
915.484009
 10
643.723022
 20
915.483887
 10
631.662842
 20
922.445801
 10
632.443115
 20
923.797546
 42
1.0
 10
630.382202
 20
920.228149
 10
631.162842
 20
921.579956
 10
640.410522
 20
916.241272
 10
634.168335
 20
913.858521
 10
634.524841
 20
912.924377
 10
641.526733
 20
915.596741
 10
643.089233
 20
914.69519
 10
643.156189
 20
910.802551
 10
641.071228
 20
909.38739
 10
641.071289
 20
907.434448
 10
641.568359
 20
906.934509
 10
648.546875
 20
906.934814
 10
648.546875
 20
907.934753
 10
642.071289
 20
907.934265
 10
642.037109
 20
908.925903
 10
644.089294
 20
910.55249
 10
644.089233
 20
914.483826
 10
648.546753
 20
914.48407
  0
LWPOLYLINE
  5
6F
100
AcDbEntity
  8
LAYER22
370
    18
390
0
  6
DASHED
 62
     1
100
AcDbPolyline
 90
        4
 70
     1
 10
777.523438
 20
1002.516113
 10
777.523438
 20
1008.516113
 10
801.523438
 20
1008.516113
 10
801.523438
 20
1002.516113
  0
LWPOLYLINE
  5
70
100
AcDbEntity
  8
LAYER22
370
    18
390
0
  6
DASHED
 62
     1
100
AcDbPolyline
 90
        4
 70
     1
 10
783.023438
 20
1002.516113
 10
796.023438
 20
1002.516113
 10
796.023438
 20
984.516113
 10
783.023438
 20
984.516113
  0
LWPOLYLINE
  5
71
100
AcDbEntity
  8
LAYER22
370
    18
390
0
  6
DASHED
 62
     1
100
AcDbPolyline
 90
        4
 70
     1
 10
777.523438
 20
978.516113
 10
777.523438
 20
984.516113
 10
801.523438
 20
984.516113
 10
801.523438
 20
978.516113
  0
CIRCLE
  5
72
100
AcDbEntity
  8
LAYER22
390
0
  6
Continuous
 62
     1
100
AcDbCircle
 10
789.523438
 20
993.516113
 30
0.0
 40
6.0
  0
CIRCLE
  5
73
100
AcDbEntity
  8
LAYER22
390
0
  6
Continuous
 62
     1
100
AcDbCircle
 10
789.523438
 20
993.516113
 30
0.0
 40
5.0
  0
LWPOLYLINE
  5
74
100
AcDbEntity
  8
LAYER22
370
    18
390
0
  6
DASHED
 62
     1
100
AcDbPolyline
 90
        2
 70
     0
 10
787.023438
 20
989.186035
 10
792.023438
 20
997.846313
  0
LWPOLYLINE
  5
75
100
AcDbEntity
  8
LAYER22
370
    25
390
0
  6
Continuous
 62
     2
100
AcDbPolyline
 90
       16
 70
     1
 10
938.572998
 20
1063.334229
 10
1061.562866
 20
992.35907
 10
1064.062012
 20
996.689697
 10
1057.999146
 20
1000.188477
 10
1057.453979
 20
999.243713
 42
-1.0
 10
1059.528931
 20
1002.839294
 10
1058.998779
 20
1001.920715
 10
1065.061646
 20
998.421936
 10
1067.560791
 20
1002.752563
 10
944.570923
 20
1073.727783
 10
942.071777
 20
1069.397217
 10
948.072083
 20
1065.93457
 10
948.602173
 20
1066.853027
 42
-1.035421
 10
946.527222
 20
1063.257446
 10
947.072449
 20
1064.202271
 10
941.072144
 20
1067.664917
  0
LWPOLYLINE
  5
76
100
AcDbEntity
  8
LAYER22
370
    18
390
0
  6
DASHED
 62
     1
100
AcDbPolyline
 90
        4
 70
     1
 10
-64.015625
 20
679.0
 10
-64.015625
 20
685.0
 10
-40.015625
 20
685.0
 10
-40.015625
 20
679.0
  0
LWPOLYLINE
  5
77
100
AcDbEntity
  8
LAYER22
370
    18
390
0
  6
DASHED
 62
     1
100
AcDbPolyline
 90
        4
 70
     1
 10
-58.515625
 20
679.0
 10
-45.515625
 20
679.0
 10
-45.515625
 20
661.0
 10
-58.515625
 20
661.0
  0
LWPOLYLINE
  5
78
100
AcDbEntity
  8
LAYER22
370
    18
390
0
  6
DASHED
 62
     1
100
AcDbPolyline
 90
        4
 70
     1
 10
-64.015625
 20
655.0
 10
-64.015625
 20
661.0
 10
-40.015625
 20
661.0
 10
-40.015625
 20
655.0
  0
CIRCLE
  5
79
100
AcDbEntity
  8
LAYER22
390
0
  6
Continuous
 62
     1
100
AcDbCircle
 10
-52.015625
 20
670.0
 30
0.0
 40
6.0
  0
CIRCLE
  5
7A
100
AcDbEntity
  8
LAYER22
390
0
  6
Continuous
 62
     1
100
AcDbCircle
 10
-52.015625
 20
670.0
 30
0.0
 40
5.0
  0
LWPOLYLINE
  5
7B
100
AcDbEntity
  8
LAYER22
370
    18
390
0
  6
DASHED
 62
     1
100
AcDbPolyline
 90
        2
 70
     0
 10
-54.515625
 20
665.669922
 10
-49.515625
 20
674.3302
  0
LWPOLYLINE
  5
7C
100
AcDbEntity
  8
LAYER22
370
    18
390
0
  6
Continuous
 62
     1
100
AcDbPolyline
 90
        6
 70
     1
 10
1403.0
 20
664.98584
 10
1403.0
 20
674.983887
 10
1406.0
 20
672.026855
 10
1416.0
 20
672.026855
 10
1416.0
 20
668.026855
 10
1406.0
 20
668.026855
  0
LWPOLYLINE
  5
7D
100
AcDbEntity
  8
LAYER22
370
    18
390
0
  6
Continuous
 62
     1
100
AcDbPolyline
 90
        2
 70
     0
 10
1406.0
 20
672.026855
 10
1406.0
 20
668.026855
  0
LWPOLYLINE
  5
7E
100
AcDbEntity
  8
LAYER22
370
    18
390
0
  6
Continuous
 62
     1
100
AcDbPolyline
 90
       22
 70
     0
 10
1416.0
 20
672.026855
 10
1418.25
 20
668.176758
 10
1420.390625
 20
671.734131
 10
1422.68042
 20
668.472168
 10
1425.132324
 20
671.417969
 10
1427.431152
 20
668.788818
 10
1429.754883
 20
671.109863
 10
1431.980469
 20
669.092041
 10
1434.025146
 20
670.824951
 10
1435.852295
 20
669.350342
 10
1437.476074
 20
670.594971
 10
1438.593994
 20
669.532959
 10
1439.67749
 20
670.448242
 10
1440.722168
 20
669.675049
 10
1441.690186
 20
670.314209
 10
1442.431885
 20
669.788818
 10
1443.3125
 20
670.205811
 10
1443.863525
 20
669.884277
 10
1444.236572
 20
670.144287
 10
1444.787598
 20
669.946045
 10
1445.15918
 20
670.082764
 10
1445.990234
 20
669.984863
  0
LWPOLYLINE
  5
7F
100
AcDbEntity
  8
LAYER22
370
    25
390
0
  6
Continuous
 62
     2
100
AcDbPolyline
 90
       18
 70
     0
 10
1403.0
 20
669.984863
 10
1403.0
 20
676.664063
 42
-0.268065
 10
1404.25
 20
678.829041
 10
1411.825195
 20
683.202637
 10
1412.075195
 20
683.635742
 10
1412.075195
 20
685.684814
 10
1430.0
 20
685.684814
 10
1430.0
 20
683.684814
 10
1427.5
 20
683.684814
 10
1427.5
 20
684.284668
 10
1422.326172
 20
684.284668
 10
1422.326172
 20
677.584961
 10
1420.92627
 20
677.584961
 10
1420.92627
 20
684.284668
 10
1413.475098
 20
684.284668
 10
1413.475098
 20
681.384277
 10
1406.5
 20
677.356934
 10
1406.5
 20
669.984863
  0
LWPOLYLINE
  5
80
100
AcDbEntity
  8
LAYER22
370
    25
390
0
  6
Continuous
 62
     2
100
AcDbPolyline
 90
       18
 70
     0
 10
1403.0
 20
669.984863
 10
1403.0
 20
663.305664
 42
0.268065
 10
1404.25
 20
661.140686
 10
1411.825195
 20
656.76709
 10
1412.075195
 20
656.333984
 10
1412.075195
 20
654.284912
 10
1430.0
 20
654.284912
 10
1430.0
 20
656.284912
 10
1427.5
 20
656.284912
 10
1427.5
 20
655.685059
 10
1422.326172
 20
655.685059
 10
1422.326172
 20
662.384766
 10
1420.92627
 20
662.384766
 10
1420.92627
 20
655.685059
 10
1413.475098
 20
655.685059
 10
1413.475098
 20
658.585449
 10
1406.5
 20
662.612793
 10
1406.5
 20
669.984863
  0
LWPOLYLINE
  5
81
100
AcDbEntity
  8
LAYER22
370
    25
390
0
  6
Continuous
 62
     2
100
AcDbPolyline
 90
       13
 70
     0
 10
117.234375
 20
669.984863
 10
117.234375
 20
679.807495
 10
123.317871
 20
683.351929
 42
0.767315
 10
123.067871
 20
684.284912
 10
110.258789
 20
684.284912
 10
110.258789
 20
683.684937
 10
107.758789
 20
683.684937
 10
107.758789
 20
685.684937
 10
127.359863
 20
685.684937
 42
-0.767332
 10
127.734856
 20
684.2854
 10
120.28418
 20
679.984009
 42
0.267954
 10
119.034096
 20
677.818848
 10
119.03418
 20
669.984863
  0
LWPOLYLINE
  5
82
100
AcDbEntity
  8
LAYER22
370
    25
390
0
  6
Continuous
 62
     2
100
AcDbPolyline
 90
       13
 70
     0
 10
117.234375
 20
669.984863
 10
117.234375
 20
660.162231
 10
123.317871
 20
656.617798
 42
-0.767315
 10
123.067871
 20
655.684814
 10
110.258789
 20
655.684814
 10
110.258789
 20
656.28479
 10
107.758789
 20
656.28479
 10
107.758789
 20
654.28479
 10
127.359863
 20
654.28479
 42
0.767332
 10
127.734856
 20
655.684326
 10
120.28418
 20
659.985718
 42
-0.267954
 10
119.034096
 20
662.150879
 10
119.03418
 20
669.984863
  0
LWPOLYLINE
  5
83
100
AcDbEntity
  8
LAYER22
370
    13
390
0
  6
DASHDOT
 62
     5
100
AcDbPolyline
 90
        2
 70
     0
 10
-70.0
 20
670.0
 10
1430.0
 20
670.0
  0
LWPOLYLINE
  5
84
100
AcDbEntity
  8
LAYER22
370
    25
390
0
  6
Continuous
 62
     2
100
AcDbPolyline
 90
       10
 70
     1
 10
-7.765625
 20
682.484863
 10
117.234375
 20
682.484863
 10
117.234375
 20
657.484863
 10
-7.765625
 20
657.484863
 10
-7.765625
 20
668.984863
 10
-0.837891
 20
668.984863
 10
-0.837891
 20
667.924316
 42
1.035178
 10
-0.837891
 20
672.075684
 10
-0.837891
 20
670.984863
 10
-7.765625
 20
670.984863
  0
LWPOLYLINE
  5
85
100
AcDbEntity
  8
LAYER22
370
    18
390
0
  6
DASHED
 62
     1
100
AcDbPolyline
 90
        4
 70
     1
 10
10.9375
 20
679.0
 10
10.9375
 20
685.0
 10
34.9375
 20
685.0
 10
34.9375
 20
679.0
  0
LWPOLYLINE
  5
86
100
AcDbEntity
  8
LAYER22
370
    18
390
0
  6
DASHED
 62
     1
100
AcDbPolyline
 90
        4
 70
     1
 10
16.4375
 20
679.0
 10
29.4375
 20
679.0
 10
29.4375
 20
661.0
 10
16.4375
 20
661.0
  0
LWPOLYLINE
  5
87
100
AcDbEntity
  8
LAYER22
370
    18
390
0
  6
DASHED
 62
     1
100
AcDbPolyline
 90
        4
 70
     1
 10
10.9375
 20
655.0
 10
10.9375
 20
661.0
 10
34.9375
 20
661.0
 10
34.9375
 20
655.0
  0
CIRCLE
  5
88
100
AcDbEntity
  8
LAYER22
390
0
  6
Continuous
 62
     1
100
AcDbCircle
 10
22.9375
 20
670.0
 30
0.0
 40
6.0
  0
CIRCLE
  5
89
100
AcDbEntity
  8
LAYER22
390
0
  6
Continuous
 62
     1
100
AcDbCircle
 10
22.9375
 20
670.0
 30
0.0
 40
5.0
  0
LWPOLYLINE
  5
8A
100
AcDbEntity
  8
LAYER22
370
    18
390
0
  6
DASHED
 62
     1
100
AcDbPolyline
 90
        2
 70
     0
 10
20.4375
 20
665.669922
 10
25.4375
 20
674.3302
  0
LWPOLYLINE
  5
8B
100
AcDbEntity
  8
LAYER22
370
    18
390
0
  6
DASHED
 62
     1
100
AcDbPolyline
 90
        4
 70
     1
 10
75.9375
 20
679.0
 10
75.9375
 20
685.0
 10
99.9375
 20
685.0
 10
99.9375
 20
679.0
  0
LWPOLYLINE
  5
8C
100
AcDbEntity
  8
LAYER22
370
    18
390
0
  6
DASHED
 62
     1
100
AcDbPolyline
 90
        4
 70
     1
 10
81.4375
 20
679.0
 10
94.4375
 20
679.0
 10
94.4375
 20
661.0
 10
81.4375
 20
661.0
  0
LWPOLYLINE
  5
8D
100
AcDbEntity
  8
LAYER22
370
    18
390
0
  6
DASHED
 62
     1
100
AcDbPolyline
 90
        4
 70
     1
 10
75.9375
 20
655.0
 10
75.9375
 20
661.0
 10
99.9375
 20
661.0
 10
99.9375
 20
655.0
  0
CIRCLE
  5
8E
100
AcDbEntity
  8
LAYER22
390
0
  6
Continuous
 62
     1
100
AcDbCircle
 10
87.9375
 20
670.0
 30
0.0
 40
6.0
  0
CIRCLE
  5
8F
100
AcDbEntity
  8
LAYER22
390
0
  6
Continuous
 62
     1
100
AcDbCircle
 10
87.9375
 20
670.0
 30
0.0
 40
5.0
  0
LWPOLYLINE
  5
90
100
AcDbEntity
  8
LAYER22
370
    18
390
0
  6
DASHED
 62
     1
100
AcDbPolyline
 90
        2
 70
     0
 10
85.4375
 20
665.669922
 10
90.4375
 20
674.3302
  0
LWPOLYLINE
  5
91
100
AcDbEntity
  8
LAYER22
370
    25
390
0
  6
Continuous
 62
     2
100
AcDbPolyline
 90
       16
 70
     1
 10
-58.000488
 20
520.0
 10
-58.000488
 20
820.0
 10
-53.000488
 20
820.0
 10
-53.000488
 20
813.0
 10
-54.091309
 20
813.0
 42
1.0
 10
-49.939941
 20
813.0
 10
-51.000488
 20
813.0
 10
-51.000488
 20
820.0
 10
-46.000488
 20
820.0
 10
-46.000488
 20
520.0
 10
-51.000488
 20
520.0
 10
-51.000488
 20
526.927734
 10
-49.939941
 20
526.927734
 42
1.035421
 10
-54.091309
 20
526.927734
 10
-53.000488
 20
526.927734
 10
-53.000488
 20
520.0
  0
LWPOLYLINE
  5
92
100
AcDbEntity
  8
LAYER22
370
    25
390
0
  6
Continuous
 62
     2
100
AcDbPolyline
 90
       21
 70
     0
 10
-33.986328
 20
516.322021
 10
-39.5
 20
516.322021
 10
-39.5
 20
526.999756
 10
-37.939453
 20
527.000244
 42
0.999763
 10
-42.060547
 20
527.000244
 10
-40.5
 20
527.000244
 10
-40.5
 20
517.049072
 10
-45.999023
 20
520.148926
 10
-46.629883
 20
519.373047
 10
-39.452148
 20
515.032959
 10
-39.452148
 20
511.367676
 10
-41.476563
 20
509.952637
 10
-41.475586
 20
507.999756
 10
-40.978516
 20
507.499756
 10
-34.0
 20
507.499756
 10
-34.0
 20
508.499756
 10
-40.509766
 20
508.499756
 10
-40.509766
 20
509.491211
 10
-38.367188
 20
511.189453
 10
-38.367188
 20
515.032959
 10
-33.986328
 20
515.032959
  0
LWPOLYLINE
  5
93
100
AcDbEntity
  8
LAYER22
370
    25
390
0
  6
Continuous
 62
     2
100
AcDbPolyline
 90
       21
 70
     0
 10
-34.013672
 20
516.322021
 10
-28.5
 20
516.322021
 10
-28.5
 20
526.999756
 10
-30.060547
 20
527.000244
 42
-0.999763
 10
-25.939453
 20
527.000244
 10
-27.5
 20
527.000244
 10
-27.5
 20
517.049072
 10
-22.000977
 20
520.148926
 10
-21.370117
 20
519.373047
 10
-28.547852
 20
515.032959
 10
-28.547852
 20
511.367676
 10
-26.523438
 20
509.952637
 10
-26.524414
 20
507.999756
 10
-27.021484
 20
507.499756
 10
-34.0
 20
507.499756
 10
-34.0
 20
508.499756
 10
-27.490234
 20
508.499756
 10
-27.490234
 20
509.491211
 10
-29.632813
 20
511.189453
 10
-29.632813
 20
515.032959
 10
-34.013672
 20
515.032959
  0
LWPOLYLINE
  5
94
100
AcDbEntity
  8
LAYER22
370
    25
390
0
  6
Continuous
 62
     2
100
AcDbPolyline
 90
       16
 70
     1
 10
-46.000488
 20
520.0
 10
-46.000488
 20
820.0
 10
-41.000488
 20
820.0
 10
-41.000488
 20
813.0
 10
-42.091309
 20
813.0
 42
1.0
 10
-37.939941
 20
813.0
 10
-39.000488
 20
813.0
 10
-39.000488
 20
820.0
 10
-34.000488
 20
820.0
 10
-34.000488
 20
520.0
 10
-39.000488
 20
520.0
 10
-39.000488
 20
526.927734
 10
-37.939941
 20
526.927734
 42
1.035421
 10
-42.091309
 20
526.927734
 10
-41.000488
 20
526.927734
 10
-41.000488
 20
520.0
  0
LWPOLYLINE
  5
95
100
AcDbEntity
  8
LAYER22
370
    18
390
0
  6
DASHED
 62
     1
100
AcDbPolyline
 90
        4
 70
     1
 10
-40.015625
 20
679.0
 10
-40.015625
 20
685.0
 10
-16.015625
 20
685.0
 10
-16.015625
 20
679.0
  0
LWPOLYLINE
  5
96
100
AcDbEntity
  8
LAYER22
370
    18
390
0
  6
DASHED
 62
     1
100
AcDbPolyline
 90
        4
 70
     1
 10
-34.515625
 20
679.0
 10
-21.515625
 20
679.0
 10
-21.515625
 20
661.0
 10
-34.515625
 20
661.0
  0
LWPOLYLINE
  5
97
100
AcDbEntity
  8
LAYER22
370
    18
390
0
  6
DASHED
 62
     1
100
AcDbPolyline
 90
        4
 70
     1
 10
-40.015625
 20
655.0
 10
-40.015625
 20
661.0
 10
-16.015625
 20
661.0
 10
-16.015625
 20
655.0
  0
CIRCLE
  5
98
100
AcDbEntity
  8
LAYER22
390
0
  6
Continuous
 62
     1
100
AcDbCircle
 10
-28.015625
 20
670.0
 30
0.0
 40
6.0
  0
CIRCLE
  5
99
100
AcDbEntity
  8
LAYER22
390
0
  6
Continuous
 62
     1
100
AcDbCircle
 10
-28.015625
 20
670.0
 30
0.0
 40
5.0
  0
LWPOLYLINE
  5
9A
100
AcDbEntity
  8
LAYER22
370
    18
390
0
  6
DASHED
 62
     1
100
AcDbPolyline
 90
        2
 70
     0
 10
-30.515625
 20
665.669922
 10
-25.515625
 20
674.3302
  0
LWPOLYLINE
  5
9B
100
AcDbEntity
  8
LAYER22
370
    25
390
0
  6
Continuous
 62
     2
100
AcDbPolyline
 90
       16
 70
     1
 10
-34.000488
 20
520.0
 10
-34.000488
 20
820.0
 10
-29.000488
 20
820.0
 10
-29.000488
 20
813.0
 10
-30.091309
 20
813.0
 42
1.0
 10
-25.939941
 20
813.0
 10
-27.000488
 20
813.0
 10
-27.000488
 20
820.0
 10
-22.000488
 20
820.0
 10
-22.000488
 20
520.0
 10
-27.000488
 20
520.0
 10
-27.000488
 20
526.927734
 10
-25.939941
 20
526.927734
 42
1.035421
 10
-30.091309
 20
526.927734
 10
-29.000488
 20
526.927734
 10
-29.000488
 20
520.0
  0
LWPOLYLINE
  5
9C
100
AcDbEntity
  8
LAYER22
370
    25
390
0
  6
Continuous
 62
     2
100
AcDbPolyline
 90
       16
 70
     1
 10
-22.000488
 20
678.0
 10
-22.000488
 20
820.0
 10
-17.000488
 20
820.0
 10
-17.000488
 20
813.0
 10
-18.091309
 20
813.0
 42
1.0
 10
-13.939941
 20
813.0
 10
-15.000488
 20
813.0
 10
-15.000488
 20
820.0
 10
-10.000488
 20
820.0
 10
-10.000488
 20
678.0
 10
-15.000488
 20
678.0
 10
-15.000488
 20
684.927734
 10
-13.939941
 20
684.927734
 42
1.035421
 10
-18.091309
 20
684.927734
 10
-17.000488
 20
684.927734
 10
-17.000488
 20
678.0
  0
LWPOLYLINE
  5
9D
100
AcDbEntity
  8
LAYER22
370
    25
390
0
  6
Continuous
 62
     2
100
AcDbPolyline
 90
       16
 70
     1
 10
-70.000488
 20
520.0
 10
-70.000488
 20
662.0
 10
-65.000488
 20
662.0
 10
-65.000488
 20
655.0
 10
-66.091309
 20
655.0
 42
1.0
 10
-61.939941
 20
655.0
 10
-63.000488
 20
655.0
 10
-63.000488
 20
662.0
 10
-58.000488
 20
662.0
 10
-58.000488
 20
520.0
 10
-63.000488
 20
520.0
 10
-63.000488
 20
526.927734
 10
-61.939941
 20
526.927734
 42
1.035421
 10
-66.091309
 20
526.927734
 10
-65.000488
 20
526.927734
 10
-65.000488
 20
520.0
  0
LWPOLYLINE
  5
9E
100
AcDbEntity
  8
LAYER22
370
    25
390
0
  6
Continuous
 62
     2
100
AcDbPolyline
 90
       21
 70
     0
 10
-57.986328
 20
516.322021
 10
-63.5
 20
516.322021
 10
-63.5
 20
526.999756
 10
-61.939453
 20
527.000244
 42
0.999763
 10
-66.060547
 20
527.000244
 10
-64.5
 20
527.000244
 10
-64.5
 20
517.049072
 10
-69.999023
 20
520.148926
 10
-70.629883
 20
519.373047
 10
-63.452148
 20
515.032959
 10
-63.452148
 20
511.367676
 10
-65.476563
 20
509.952637
 10
-65.475586
 20
507.999756
 10
-64.978516
 20
507.499756
 10
-58.0
 20
507.499756
 10
-58.0
 20
508.499756
 10
-64.509766
 20
508.499756
 10
-64.509766
 20
509.491211
 10
-62.367188
 20
511.189453
 10
-62.367188
 20
515.032959
 10
-57.986328
 20
515.032959
  0
LWPOLYLINE
  5
9F
100
AcDbEntity
  8
LAYER22
370
    25
390
0
  6
Continuous
 62
     2
100
AcDbPolyline
 90
       21
 70
     0
 10
-58.013672
 20
516.322021
 10
-52.5
 20
516.322021
 10
-52.5
 20
526.999756
 10
-54.060547
 20
527.000244
 42
-0.999763
 10
-49.939453
 20
527.000244
 10
-51.5
 20
527.000244
 10
-51.5
 20
517.049072
 10
-46.000977
 20
520.148926
 10
-45.370117
 20
519.373047
 10
-52.547852
 20
515.032959
 10
-52.547852
 20
511.367676
 10
-50.523438
 20
509.952637
 10
-50.524414
 20
507.999756
 10
-51.021484
 20
507.499756
 10
-58.0
 20
507.499756
 10
-58.0
 20
508.499756
 10
-51.490234
 20
508.499756
 10
-51.490234
 20
509.491211
 10
-53.632813
 20
511.189453
 10
-53.632813
 20
515.032959
 10
-58.013672
 20
515.032959
  0
LWPOLYLINE
  5
A0
100
AcDbEntity
  8
LAYER22
370
    25
390
0
  6
Continuous
 62
     2
100
AcDbPolyline
 90
       14
 70
     1
 10
-15.515625
 20
670.466553
 10
-10.62207
 20
670.466553
 10
-8.568359
 20
682.616943
 10
-7.582031
 20
682.450195
 10
-9.595703
 20
670.533447
 10
-0.821289
 20
670.533447
 10
-0.821289
 20
672.109375
 42
-1.035174
 10
-0.821289
 20
667.95752
 10
-0.821289
 20
669.533447
 10
-9.595703
 20
669.533447
 10
-7.582031
 20
657.616699
 10
-8.568359
 20
657.450195
 10
-10.611328
 20
669.533447
 10
-16.515625
 20
669.533447
  0
LWPOLYLINE
  5
A1
100
AcDbEntity
  8
LAYER22
370
    25
390
0
  6
Continuous
 62
     2
100
AcDbPolyline
 90
       14
 70
     1
 10
-18.091797
 20
684.927734
 42
-1.035352
 10
-13.939445
 20
684.927979
 10
-15.53125
 20
684.927979
 10
-15.53125
 20
674.250244
 10
-10.347656
 20
678.467041
 10
-9.716797
 20
677.691406
 10
-15.53125
 20
672.960938
 10
-15.515625
 20
670.466553
 10
-16.515625
 20
669.533447
 10
-16.53125
 20
672.960938
 10
-22.345703
 20
677.688965
 10
-21.714844
 20
678.464844
 10
-16.53125
 20
674.249756
 10
-16.53125
 20
684.927734
  0
LWPOLYLINE
  5
A2
100
AcDbEntity
  8
LAYER22
370
    25
390
0
  6
Continuous
 62
     2
100
AcDbPolyline
 90
       10
 70
     0
 10
-64.500977
 20
670.0
 10
-64.500977
 20
673.751953
 10
-70.430664
 20
676.151611
 10
-70.055664
 20
677.078369
 10
-64.501953
 20
674.831055
 10
-64.507813
 20
683.928223
 10
-66.09082
 20
683.928223
 42
-1.035169
 10
-61.938477
 20
683.928223
 10
-63.506836
 20
683.928223
 10
-63.501953
 20
670.0
  0
LWPOLYLINE
  5
A3
100
AcDbEntity
  8
LAYER22
370
    25
390
0
  6
Continuous
 62
     2
100
AcDbPolyline
 90
       10
 70
     0
 10
-64.500977
 20
670.0
 10
-64.505859
 20
664.596558
 10
-70.435547
 20
662.197021
 10
-70.060547
 20
661.27002
 10
-64.506836
 20
663.517456
 10
-64.506836
 20
655.071777
 10
-66.089844
 20
655.071777
 42
1.035169
 10
-61.9375
 20
655.071777
 10
-63.505859
 20
655.071777
 10
-63.501953
 20
670.0
  0
LWPOLYLINE
  5
A4
100
AcDbEntity
  8
LAYER22
370
    25
390
0
  6
Continuous
 62
     2
100
AcDbPolyline
 90
       10
 70
     1
 10
-70.0
 20
677.0
 10
-70.0
 20
732.0
 10
-58.0
 20
732.0
 10
-58.0
 20
677.0
 10
-63.0
 20
677.0
 10
-63.0
 20
683.928711
 10
-61.939453
 20
683.928711
 42
1.034934
 10
-66.09082
 20
683.928711
 10
-65.0
 20
683.928711
 10
-65.0
 20
677.0
  0
LWPOLYLINE
  5
A5
100
AcDbEntity
  8
LAYER22
370
    18
390
0
  6
Continuous
 62
     1
100
AcDbPolyline
 90
        6
 70
     1
 10
-58.0
 20
710.079102
 10
-58.0
 20
700.081055
 10
-61.0
 20
703.038086
 10
-71.0
 20
703.038086
 10
-71.0
 20
707.038086
 10
-61.0
 20
707.038086
  0
LWPOLYLINE
  5
A6
100
AcDbEntity
  8
LAYER22
370
    18
390
0
  6
Continuous
 62
     1
100
AcDbPolyline
 90
        2
 70
     0
 10
-61.0
 20
703.038086
 10
-61.0
 20
707.038086
  0
LWPOLYLINE
  5
A7
100
AcDbEntity
  8
LAYER22
370
    18
390
0
  6
Continuous
 62
     1
100
AcDbPolyline
 90
       22
 70
     0
 10
-71.0
 20
703.038086
 10
-73.25
 20
706.888184
 10
-75.390625
 20
703.330811
 10
-77.68042
 20
706.592773
 10
-80.132324
 20
703.646973
 10
-82.431152
 20
706.276123
 10
-84.754883
 20
703.955078
 10
-86.980469
 20
705.9729
 10
-89.025146
 20
704.23999
 10
-90.852295
 20
705.7146
 10
-92.476074
 20
704.469971
 10
-93.593994
 20
705.531982
 10
-94.67749
 20
704.616699
 10
-95.722168
 20
705.389893
 10
-96.690186
 20
704.750732
 10
-97.431885
 20
705.276123
 10
-98.3125
 20
704.859131
 10
-98.863525
 20
705.180664
 10
-99.236572
 20
704.920654
 10
-99.787598
 20
705.118896
 10
-100.15918
 20
704.982178
 10
-100.990234
 20
705.080078
  0
LWPOLYLINE
  5
A8
100
AcDbEntity
  8
LAYER22
370
    25
390
0
  6
Continuous
 62
     2
100
AcDbPolyline
 90
       21
 70
     0
 10
-45.986328
 20
823.677979
 10
-51.5
 20
823.677979
 10
-51.5
 20
813.000244
 10
-49.939453
 20
812.999756
 42
-0.999763
 10
-54.060547
 20
812.999756
 10
-52.5
 20
812.999756
 10
-52.5
 20
822.950928
 10
-57.999023
 20
819.851074
 10
-58.629883
 20
820.626953
 10
-51.452148
 20
824.967041
 10
-51.452148
 20
828.632324
 10
-53.476563
 20
830.047363
 10
-53.475586
 20
832.000244
 10
-52.978516
 20
832.500244
 10
-46.0
 20
832.500244
 10
-46.0
 20
831.500244
 10
-52.509766
 20
831.500244
 10
-52.509766
 20
830.508789
 10
-50.367188
 20
828.810547
 10
-50.367188
 20
824.967041
 10
-45.986328
 20
824.967041
  0
LWPOLYLINE
  5
A9
100
AcDbEntity
  8
LAYER22
370
    25
390
0
  6
Continuous
 62
     2
100
AcDbPolyline
 90
       21
 70
     0
 10
-46.013672
 20
823.677979
 10
-40.5
 20
823.677979
 10
-40.5
 20
813.000244
 10
-42.060547
 20
812.999756
 42
0.999763
 10
-37.939453
 20
812.999756
 10
-39.5
 20
812.999756
 10
-39.5
 20
822.950928
 10
-34.000977
 20
819.851074
 10
-33.370117
 20
820.626953
 10
-40.547852
 20
824.967041
 10
-40.547852
 20
828.632324
 10
-38.523438
 20
830.047363
 10
-38.524414
 20
832.000244
 10
-39.021484
 20
832.500244
 10
-46.0
 20
832.500244
 10
-46.0
 20
831.500244
 10
-39.490234
 20
831.500244
 10
-39.490234
 20
830.508789
 10
-41.632813
 20
828.810547
 10
-41.632813
 20
824.967041
 10
-46.013672
 20
824.967041
  0
LWPOLYLINE
  5
AA
100
AcDbEntity
  8
LAYER22
370
    25
390
0
  6
Continuous
 62
     2
100
AcDbPolyline
 90
       21
 70
     0
 10
-21.986328
 20
823.677979
 10
-27.5
 20
823.677979
 10
-27.5
 20
813.000244
 10
-25.939453
 20
812.999756
 42
-0.999763
 10
-30.060547
 20
812.999756
 10
-28.5
 20
812.999756
 10
-28.5
 20
822.950928
 10
-33.999023
 20
819.851074
 10
-34.629883
 20
820.626953
 10
-27.452148
 20
824.967041
 10
-27.452148
 20
828.632324
 10
-29.476563
 20
830.047363
 10
-29.475586
 20
832.000244
 10
-28.978516
 20
832.500244
 10
-22.0
 20
832.500244
 10
-22.0
 20
831.500244
 10
-28.509766
 20
831.500244
 10
-28.509766
 20
830.508789
 10
-26.367188
 20
828.810547
 10
-26.367188
 20
824.967041
 10
-21.986328
 20
824.967041
  0
LWPOLYLINE
  5
AB
100
AcDbEntity
  8
LAYER22
370
    25
390
0
  6
Continuous
 62
     2
100
AcDbPolyline
 90
       21
 70
     0
 10
-22.013672
 20
823.677979
 10
-16.5
 20
823.677979
 10
-16.5
 20
813.000244
 10
-18.060547
 20
812.999756
 42
0.999763
 10
-13.939453
 20
812.999756
 10
-15.5
 20
812.999756
 10
-15.5
 20
822.950928
 10
-10.000977
 20
819.851074
 10
-9.370117
 20
820.626953
 10
-16.547852
 20
824.967041
 10
-16.547852
 20
828.632324
 10
-14.523438
 20
830.047363
 10
-14.524414
 20
832.000244
 10
-15.021484
 20
832.500244
 10
-22.0
 20
832.500244
 10
-22.0
 20
831.500244
 10
-15.490234
 20
831.500244
 10
-15.490234
 20
830.508789
 10
-17.632813
 20
828.810547
 10
-17.632813
 20
824.967041
 10
-22.013672
 20
824.967041
  0
ENDSEC
  0
SECTION
  2
OBJECTS
  0
DICTIONARY
  5
19
100
AcDbDictionary
280
     0
281
     1
  3
ACAD_GROUP
350
1A
  3
ACAD_MLINESTYLE
350
1B
  3
ACAD_LAYOUT
350
1E
  3
ACAD_PLOTSETTINGS
350
22
  3
ACAD_PLOTSTYLENAME
350
1F
  3
ACAD_WIPEOUT_VARS
350
23
  0
DICTIONARY
  5
1A
102
{ACAD_REACTORS
330
19
102
}
100
AcDbDictionary
280
     0
281
     1
  0
DICTIONARY
  5
1B
102
{ACAD_REACTORS
330
19
102
}
100
AcDbDictionary
280
     0
281
     1
  3
Standard
350
1C
  0
MLINESTYLE
  5
1C
102
{ACAD_REACTORS
330
1B
102
}
100
AcDbMlineStyle
  2
Standard
 70
     0
  3

 62
     0
 51
90.0
 52
90.0
 71
     2
 49
0.5
 62
   256
  6
ByLayer
 49
-0.5
 62
   256
  6
ByLayer
  0
ACDBDICTIONARYWDFLT
  5
1F
102
{ACAD_REACTORS
330
19
102
}
100
AcDbDictionary
281
     1
  3
Normal
350
1D
100
AcDbDictionaryWithDefault
340
1D
  0
ACDBPLACEHOLDER
  5
1D
102
{ACAD_REACTORS
330
1F
102
}
  0
LAYOUT
  5
20
102
{ACAD_REACTORS
330
1E
102
}
100
AcDbPlotSettings
  1

  2

  4

  6

 40
0.0
 41
0.0
 42
0.0
 43
0.0
 44
0.0
 45
0.0
 46
0.0
 47
0.0
 48
0.0
 49
0.0
140
0.0
141
0.0
142
1.0
143
1.0
 70
  1024
 72
     0
 73
     0
 74
     0
  7

 75
     0
147
1.0
148
0.0
149
0.0
100
AcDbLayout
  1
Model
 70
     0
 71
     0
 10
0.0
 20
0.0
 11
0.0
 21
0.0
 12
0.0
 22
0.0
 32
0.0
 14
0.0
 24
0.0
 34
0.0
 15
0.0
 25
0.0
 35
0.0
146
0.0
 13
0.0
 23
0.0
 33
0.0
 16
0.0
 26
0.0
 36
0.0
 17
0.0
 27
0.0
 37
0.0
 76
     0
330
A
331
0
345
0
346
0
  0
LAYOUT
  5
21
102
{ACAD_REACTORS
330
1E
102
}
100
AcDbPlotSettings
  1

  2

  4

  6

 40
0.0
 41
0.0
 42
0.0
 43
0.0
 44
0.0
 45
0.0
 46
0.0
 47
0.0
 48
0.0
 49
0.0
140
0.0
141
0.0
142
1.0
143
1.0
 70
     0
 72
     0
 73
     0
 74
     0
  7

 75
     0
147
1.0
148
0.0
149
0.0
100
AcDbLayout
  1
Layout1
 70
     0
 71
     0
 10
0.0
 20
0.0
 11
0.0
 21
0.0
 12
0.0
 22
0.0
 32
0.0
 14
0.0
 24
0.0
 34
0.0
 15
0.0
 25
0.0
 35
0.0
146
0.0
 13
0.0
 23
0.0
 33
0.0
 16
0.0
 26
0.0
 36
0.0
 17
0.0
 27
0.0
 37
0.0
 76
     0
330
B
331
0
345
0
346
0
  0
DICTIONARY
  5
1E
102
{ACAD_REACTORS
330
19
102
}
100
AcDbDictionary
280
     0
281
     1
  3
Layout1
350
21
  3
Model
350
20
  0
DICTIONARY
  5
22
102
{ACAD_REACTORS
330
19
102
}
100
AcDbDictionary
280
     0
281
     1
  0
WIPEOUTVARIABLES
  5
23
100
AcDbWipeoutVariables
 70
     1
  0
ENDSEC
  0
EOF
