  0
SECTION
  2
HEADER
  9
$ACADVER
  1
AC1015
  9
$ACADMAINTVER
 70
     6
  9
$DWGCODEPAGE
  3
ANSI_1252
  9
$INSBASE
 10
0.0
 20
0.0
 30
0.0
  9
$EXTMIN
 10
1.000000E+20
 20
1.000000E+20
 30
1.000000E+20
  9
$EXTMAX
 10
-1.000000E+20
 20
-1.000000E+20
 30
-1.000000E+20
  9
$LIMMIN
 10
0.0
 20
0.0
  9
$LIMMAX
 10
0.0
 20
0.0
  9
$ORTHOMODE
 70
     0
  9
$REGENMODE
 70
     1
  9
$FILLMODE
 70
     1
  9
$QTEXTMODE
 70
     0
  9
$MIRRTEXT
 70
     1
  9
$LTSCALE
 40
50.0
  9
$ATTMODE
 70
     1
  9
$TEXTSIZE
 40
0.2
  9
$TRACEWID
 40
0.05
  9
$TEXTSTYLE
  7
Standard
  9
$CLAYER
  8
0
  9
$CELTYPE
  6
Continuous
  9
$CECOLOR
 62
   256
  9
$CELTSCALE
 40
1.0
  9
$DISPSILH
 70
     0
  9
$DIMSCALE
 40
1.0
  9
$DIMASZ
 40
0.18
  9
$DIMEXO
 40
0.0625
  9
$DIMDLI
 40
0.38
  9
$DIMRND
 40
0.0
  9
$DIMDLE
 40
0.0
  9
$DIMEXE
 40
0.18
  9
$DIMTP
 40
0.0
  9
$DIMTM
 40
0.0
  9
$DIMTXT
 40
0.18
  9
$DIMCEN
 40
0.09
  9
$DIMTSZ
 40
0.0
  9
$DIMTOL
 70
     0
  9
$DIMLIM
 70
     0
  9
$DIMTIH
 70
     1
  9
$DIMTOH
 70
     1
  9
$DIMSE1
 70
     0
  9
$DIMSE2
 70
     0
  9
$DIMTAD
 70
     0
  9
$DIMZIN
 70
     0
  9
$DIMBLK
  1

  9
$DIMASO
 70
     1
  9
$DIMSHO
 70
     1
  9
$DIMPOST
  1

  9
$DIMAPOST
  1

  9
$DIMALT
 70
     0
  9
$DIMALTD
 70
     2
  9
$DIMALTF
 40
25.4
  9
$DIMLFAC
 40
1.0
  9
$DIMTOFL
 70
     0
  9
$DIMTVP
 40
0.0
  9
$DIMTIX
 70
     0
  9
$DIMSOXD
 70
     0
  9
$DIMSAH
 70
     0
  9
$DIMBLK1
  1

  9
$DIMBLK2
  1

  9
$DIMSTYLE
  2
Standard
  9
$DIMCLRD
 70
     0
  9
$DIMCLRE
 70
     0
  9
$DIMCLRT
 70
     0
  9
$DIMTFAC
 40
1.0
  9
$DIMGAP
 40
0.09
  9
$DIMJUST
 70
     0
  9
$DIMSD1
 70
     0
  9
$DIMSD2
 70
     0
  9
$DIMTOLJ
 70
     1
  9
$DIMTZIN
 70
     0
  9
$DIMALTZ
 70
     0
  9
$DIMALTTZ
 70
     0
  9
$DIMUPT
 70
     0
  9
$DIMDEC
 70
     4
  9
$DIMTDEC
 70
     4
  9
$DIMALTU
 70
     2
  9
$DIMALTTD
 70
     2
  9
$DIMTXSTY
  7
Standard
  9
$DIMAUNIT
 70
     0
  9
$DIMADEC
 70
     0
  9
$DIMALTRND
 40
0.0
  9
$DIMAZIN
 70
     0
  9
$DIMDSEP
 70
     0
  9
$DIMATFIT
 70
     3
  9
$DIMFRAC
 70
     0
  9
$DIMLDRBLK
  1

  9
$DIMLUNIT
 70
     2
  9
$DIMLWD
 70
     0
  9
$DIMLWE
 70
     0
  9
$DIMTMOVE
 70
     0
  9
$LUNITS
 70
     2
  9
$LUPREC
 70
     4
  9
$SKETCHINC
 40
0.1
  9
$FILLETRAD
 40
0.0
  9
$AUNITS
 70
     0
  9
$AUPREC
 70
     0
  9
$MENU
  1
acad
  9
$ELEVATION
 40
0.0
  9
$PELEVATION
 40
0.0
  9
$THICKNESS
 40
0.0
  9
$LIMCHECK
 70
     0
  9
$CHAMFERA
 40
0.0
  9
$CHAMFERB
 40
0.0
  9
$CHAMFERC
 40
0.0
  9
$CHAMFERD
 40
0.0
  9
$SKPOLY
 70
     0
  9
$TDCREATE
 40
0.000000000
  9
$TDUCREATE
 40
0.000000000
  9
$TDUPDATE
 40
0.000000000
  9
$TDUUPDATE
 40
0.000000000
  9
$TDINDWG
 40
0.0000000000
  9
$TDUSRTIMER
 40
0.0000000000
  9
$USRTIMER
 70
     1
  9
$ANGBASE
 50
0.0
  9
$ANGDIR
 70
     0
  9
$PDMODE
 70
     0
  9
$PDSIZE
 40
0.0
  9
$PLINEWID
 40
0.0
  9
$SPLFRAME
 70
     0
  9
$SPLINETYPE
 70
     6
  9
$SPLINESEGS
 70
   120
  9
$HANDSEED
  5
AE
  9
$SURFTAB1
 70
     6
  9
$SURFTAB2
 70
     6
  9
$SURFTYPE
 70
     6
  9
$SURFU
 70
     6
  9
$SURFV
 70
     6
  9
$UCSBASE
  2

  9
$UCSNAME
  2

  9
$UCSORG
 10
0.0
 20
0.0
 30
0.0
  9
$UCSXDIR
 10
1.0
 20
0.0
 30
0.0
  9
$UCSYDIR
 10
0.0
 20
1.0
 30
0.0
  9
$UCSORTHOREF
  2

  9
$UCSORTHOVIEW
 70
     0
  9
$UCSORGTOP
 10
0.0
 20
0.0
 30
0.0
  9
$UCSORGBOTTOM
 10
0.0
 20
0.0
 30
0.0
  9
$UCSORGLEFT
 10
0.0
 20
0.0
 30
0.0
  9
$UCSORGRIGHT
 10
0.0
 20
0.0
 30
0.0
  9
$UCSORGFRONT
 10
0.0
 20
0.0
 30
0.0
  9
$UCSORGBACK
 10
0.0
 20
0.0
 30
0.0
  9
$PUCSBASE
  2

  9
$PUCSNAME
  2

  9
$PUCSORG
 10
0.0
 20
0.0
 30
0.0
  9
$PUCSXDIR
 10
1.0
 20
0.0
 30
0.0
  9
$PUCSYDIR
 10
0.0
 20
1.0
 30
0.0
  9
$PUCSORTHOREF
  2

  9
$PUCSORTHOVIEW
 70
     0
  9
$PUCSORGTOP
 10
0.0
 20
0.0
 30
0.0
  9
$PUCSORGBOTTOM
 10
0.0
 20
0.0
 30
0.0
  9
$PUCSORGLEFT
 10
0.0
 20
0.0
 30
0.0
  9
$PUCSORGRIGHT
 10
0.0
 20
0.0
 30
0.0
  9
$PUCSORGFRONT
 10
0.0
 20
0.0
 30
0.0
  9
$PUCSORGBACK
 10
0.0
 20
0.0
 30
0.0
  9
$USERI1
 70
 12345
  9
$USERI2
 70
     0
  9
$USERI3
 70
     0
  9
$USERI4
 70
     0
  9
$USERI5
 70
     0
  9
$USERR1
 40
0.0
  9
$USERR2
 40
0.0
  9
$USERR3
 40
0.0
  9
$USERR4
 40
0.0
  9
$USERR5
 40
0.0
  9
$WORLDVIEW
 70
     1
  9
$SHADEDGE
 70
     3
  9
$SHADEDIF
 70
    70
  9
$TILEMODE
 70
     1
  9
$MAXACTVP
 70
    16
  9
$PINSBASE
 10
0.0
 20
0.0
 30
0.0
  9
$PLIMCHECK
 70
     0
  9
$PEXTMIN
 10
1.000000E+20
 20
1.000000E+20
 30
1.000000E+20
  9
$PEXTMAX
 10
-1.000000E+20
 20
-1.000000E+20
 30
-1.000000E+20
  9
$PLIMMIN
 10
0.0
 20
0.0
  9
$PLIMMAX
 10
12.0
 20
9.0
  9
$UNITMODE
 70
     0
  9
$VISRETAIN
 70
     0
  9
$PLINEGEN
 70
     1
  9
$PSLTSCALE
 70
     0
  9
$TREEDEPTH
 70
  3020
  9
$CMLSTYLE
  2
Standard
  9
$CMLJUST
 70
     0
  9
$CMLSCALE
 40
1.0
  9
$PROXYGRAPHICS
 70
     0
  9
$MEASUREMENT
 70
     0
  9
$CELWEIGHT
370
     0
  9
$ENDCAPS
280
     0
  9
$JOINSTYLE
280
     0
  9
$LWDISPLAY
290
     0
  9
$INSUNITS
 70
     0
  9
$HYPERLINKBASE
  1

  9
$STYLESHEET
  1

  9
$XEDIT
290
     1
  9
$CEPSNTYPE
380
     0
  9
$PSTYLEMODE
290
     1
  9
$FINGERPRINTGUID
  2

  9
$VERSIONGUID
  2

  9
$EXTNAMES
290
     1
  9
$PSVPSCALE
 40
0.0
  0
ENDSEC
  0
SECTION
  2
CLASSES
  0
CLASS
  1
LWPOLYLINE
  2
AcDbPolyline
  3
AutoCAD 2000
 90
        0
280
     0
281
     1
  0
CLASS
  1
IMAGE
  2
AcDbRasterImage
  3
ISM
 90
      127
280
     0
281
     1
  0
CLASS
  1
OLE2FRAME
  2
AcDbOle2Frame
  3
AutoCAD 2000
 90
        0
280
     0
281
     1
  0
CLASS
  1
HATCH
  2
AcDbHatch
  3
AutoCAD 2000
 90
        0
280
     0
281
     1
  0
CLASS
  1
DICTIONARYVAR
  2
AcDbDictionaryVar
  3
AutoCAD 2000
 90
        0
280
     0
281
     0
  0
CLASS
  1
RASTERVARIABLES
  2
AcDbRasterVariables
  3
ISM
 90
        0
280
     0
281
     0
  0
CLASS
  1
IMAGEDEF
  2
AcDbRasterImageDef
  3
ISM
 90
        0
280
     0
281
     0
  0
CLASS
  1
IMAGEDEF_REACTOR
  2
AcDbRasterImageDefReactor
  3
ISM
 90
        1
280
     0
281
     0
  0
CLASS
  1
IDBUFFER
  2
AcDbIdBuffer
  3
AutoCAD 2000
 90
        0
280
     0
281
     0
  0
CLASS
  1
SPATIAL_FILTER
  2
AcDbSpatialFilter
  3
AutoCAD 2000
 90
        0
280
     0
281
     0
  0
CLASS
  1
XRECORD
  2
AcDbXrecord
  3
AutoCAD 2000
 90
        0
280
     0
281
     0
  0
CLASS
  1
SORTENTSTABLE
  2
AcDbSortentsTable
  3
AutoCAD 2000
 90
        0
280
     0
281
     0
  0
CLASS
  1
LAYER_INDEX
  2
AcDbLayerIndex
  3
AutoCAD 2000
 90
        0
280
     0
281
     0
  0
CLASS
  1
SPATIAL_INDEX
  2
AcDbSpatialIndex
  3
AutoCAD 2000
 90
        0
280
     0
281
     0
  0
CLASS
  1
OBJECT_PTR
  2
CAseDLPNTableRecord
  3
"ASE-LPNTableRecord"
 90
        1
280
     0
281
     0
  0
CLASS
  1
LAYOUT
  2
AcDbLayout
  3
AutoCAD 2000
 90
        0
280
     0
281
     0
  0
CLASS
  1
PLOTSETTINGS
  2
AcDbPlotSettings
  3
AutoCAD 2000
 90
        0
280
     0
281
     0
  0
CLASS
  1
ACDBDICTIONARYWDFLT
  2
AcDbDictionaryWithDefault
  3
AutoCAD 2000
 90
        0
280
     0
281
     0
  0
CLASS
  1
ACDBPLACEHOLDER
  2
AcDbPlaceHolder
  3
AutoCAD 2000
 90
        0
280
     0
281
     0
  0
CLASS
  1
VBA_PROJECT
  2
AcDbVbaProject
  3
acadvba
 90
        0
280
     0
281
     0
  0
CLASS
  1
WIPEOUT
  2
AcDbWipeout
  3
WipeOut|AutoCAD Express Tool|expresstools@autodesk.com
 90
      127
280
     0
281
     1
  0
CLASS
  1
WIPEOUTVARIABLES
  2
AcDbWipeoutVariables
  3
WipeOut|AutoCAD Express Tool|expresstools@autodesk.com
 90
        0
280
     0
281
     0
  0
CLASS
  1
RTEXT
  2
RText
  3
RText|AutoCAD Express Tool|expresstools@autodesk.com
 90
        0
280
     0
281
     1
  0
CLASS
  1
ARCALIGNEDTEXT
  2
AcDbArcAlignedText
  3
ATEXT|AutoCAD Express Tool|expresstools@autodesk.com
 90
        0
280
     0
281
     1
  0
ENDSEC
  0
SECTION
  2
TABLES
  0
TABLE
  2
VPORT
  5
7
100
AcDbSymbolTable
 70
     1
  0
VPORT
  5
15
100
AcDbSymbolTableRecord
100
AcDbViewportTableRecord
  2
*ACTIVE
 70
     0
 10
0.0
 20
0.0
 11
1.0
 21
1.0
 12
274.0
 22
-402.0
 13
0.0
 23
0.0
 14
1.0
 24
1.0
 15
0.0
 25
0.0
 16
0.0
 26
0.0
 36
1.0
 17
0.0
 27
0.0
 37
0.0
 40
2880.0
 41
0.688564
 42
50.0
 43
0.0
 44
0.0
 50
0.0
 51
0.0
 71
     0
 72
   100
 73
     1
 74
     1
 75
     0
 76
     0
 77
     0
 78
     0
281
     0
 65
     0
110
0.0
120
0.0
130
0.0
111
1.0
121
0.0
131
0.0
112
0.0
122
1.0
132
0.0
345
0
346
0
 79
     0
146
0.0
  0
ENDTAB
  0
TABLE
  2
LTYPE
  5
4
100
AcDbSymbolTable
 70
     7
  0
LTYPE
  5
11
100
AcDbSymbolTableRecord
100
AcDbLinetypeTableRecord
  2
ByBlock
 70
    64
  3

 72
    65
 73
     0
 40
0.0
  0
LTYPE
  5
12
100
AcDbSymbolTableRecord
100
AcDbLinetypeTableRecord
  2
ByLayer
 70
    64
  3

 72
    65
 73
     0
 40
0.0
  0
LTYPE
  5
13
100
AcDbSymbolTableRecord
100
AcDbLinetypeTableRecord
  2
Continuous
 70
    64
  3
Solid line
 72
    65
 73
     0
 40
0.0
  0
LTYPE
  5
24
100
AcDbSymbolTableRecord
100
AcDbLinetypeTableRecord
  2
DASHED
 70
    64
  3
Dashed __ __ __
 72
    65
 73
     2
 40
0.75
 49
0.5
 74
     0
 49
-0.25
 74
     0
  0
LTYPE
  5
25
100
AcDbSymbolTableRecord
100
AcDbLinetypeTableRecord
  2
DOT
 70
    64
  3
Dot . . . .
 72
    65
 73
     2
 40
0.25
 49
0.0
 74
     0
 49
-0.25
 74
     0
  0
LTYPE
  5
26
100
AcDbSymbolTableRecord
100
AcDbLinetypeTableRecord
  2
DASHDOT
 70
    64
  3
Dash dot __ . __ .
 72
    65
 73
     4
 40
1.0
 49
0.5
 74
     0
 49
-0.25
 74
     0
 49
0.0
 74
     0
 49
-0.25
 74
     0
  0
LTYPE
  5
27
100
AcDbSymbolTableRecord
100
AcDbLinetypeTableRecord
  2
DIVIDE
 70
    64
  3
Divide __ . . __ . .
 72
    65
 73
     6
 40
1.25
 49
0.5
 74
     0
 49
-0.25
 74
     0
 49
0.0
 74
     0
 49
-0.25
 74
     0
 49
0.0
 74
     0
 49
-0.25
 74
     0
  0
ENDTAB
  0
TABLE
  2
LAYER
  5
2
100
AcDbSymbolTable
 70
     3
  0
LAYER
  5
14
100
AcDbSymbolTableRecord
100
AcDbLayerTableRecord
  2
0
 70
     0
 62
     7
  6
Continuous
290
     1
370
    -3
390
1D
  0
LAYER
  5
29
100
AcDbSymbolTableRecord
100
AcDbLayerTableRecord
  2
LAYER01
 70
     0
 62
     7
  6
Continuous
290
     1
370
    -3
390
1D
  0
LAYER
  5
2B
100
AcDbSymbolTableRecord
100
AcDbLayerTableRecord
  2
LAYER22
 70
     0
 62
     7
  6
Continuous
290
     1
370
    -3
390
1D
  0
ENDTAB
  0
TABLE
  2
STYLE
  5
3
100
AcDbSymbolTable
 70
     1
  0
STYLE
  5
17
100
AcDbSymbolTableRecord
100
AcDbTextStyleTableRecord
  2
Standard
 70
     0
 40
0.0
 41
1.0
 50
0.0
 71
     0
 42
0.0
  3
txt
  4

  0
ENDTAB
  0
TABLE
  2
VIEW
  5
5
100
AcDbSymbolTable
 70
     0
  0
ENDTAB
  0
TABLE
  2
UCS
  5
6
100
AcDbSymbolTable
 70
     0
  0
ENDTAB
  0
TABLE
  2
APPID
  5
8
100
AcDbSymbolTable
 70
     1
  0
APPID
  5
16
100
AcDbSymbolTableRecord
100
AcDbRegAppTableRecord
  2
ACAD
 70
     0
  0
ENDTAB
  0
TABLE
  2
DIMSTYLE
  5
9
100
AcDbSymbolTable
 70
     1
100
AcDbDimStyleTable
 71
     0
  0
DIMSTYLE
105
18
100
AcDbSymbolTableRecord
100
AcDbDimStyleTableRecord
  2
Standard
 70
     0
  3

  4

 40
1.0
 41
0.18
 42
0.0625
 43
0.38
 44
0.18
 45
0.0
 46
0.0
 47
0.0
 48
0.0
 71
     0
 72
     0
 73
     1
 74
     1
 75
     0
 76
     0
 77
     0
 78
     0
 79
     0
140
0.18
141
0.09
142
0.0
143
25.4
144
1.0
145
0.0
146
1.0
147
0.09
148
0.0
170
     0
171
     2
172
     0
173
     0
174
     0
175
     0
176
     0
177
     0
178
     0
179
     0
271
     4
272
     4
273
     2
274
     2
275
     0
276
     0
277
     2
278
    46
279
     0
280
     0
281
     0
282
     0
283
     1
284
     0
285
     0
286
     0
288
     0
289
     3
340
17
341
0
342
0
343
0
344
0
371
    -2
372
    -2
  0
ENDTAB
  0
TABLE
  2
BLOCK_RECORD
  5
1
100
AcDbSymbolTable
 70
     0
  0
BLOCK_RECORD
  5
A
100
AcDbSymbolTableRecord
100
AcDbBlockTableRecord
  2
*MODEL_SPACE
340
20
  0
BLOCK_RECORD
  5
B
100
AcDbSymbolTableRecord
100
AcDbBlockTableRecord
  2
*PAPER_SPACE
340
21
  0
ENDTAB
  0
ENDSEC
  0
SECTION
  2
BLOCKS
  0
BLOCK
  5
D
100
AcDbEntity
  8
0
390
0
100
AcDbBlockBegin
  2
*MODEL_SPACE
 70
     0
 10
0.0
 20
0.0
 30
0.0
  3
*MODEL_SPACE
  1

  0
ENDBLK
  5
E
100
AcDbEntity
  8
0
390
0
100
AcDbBlockEnd
  0
BLOCK
  5
F
100
AcDbEntity
 67
     1
  8
0
390
0
100
AcDbBlockBegin
  2
*PAPER_SPACE
 70
     0
 10
0.0
 20
0.0
 30
0.0
  3
*PAPER_SPACE
  1

  0
ENDBLK
  5
10
100
AcDbEntity
 67
     1
  8
0
390
0
100
AcDbBlockEnd
  0
ENDSEC
  0
SECTION
  2
ENTITIES
  0
MTEXT
  5
28
100
AcDbEntity
  8
LAYER01
390
0
 62
     2
100
AcDbMText
 10
-768.765625
 20
972.0
 30
0.0
 40
11.25
 41
0.0
 71
     7
 72
     1
  1
UNO 12A
 11
1.0
 21
0.0
 31
0.0
 73
     1
 44
1.333333
  0
LWPOLYLINE
  5
2A
100
AcDbEntity
  8
LAYER22
370
    13
390
0
  6
Continuous
 62
     5
100
AcDbPolyline
 90
        2
 70
     0
 10
-635.765625
 20
761.0
 10
-335.765625
 20
761.0
  0
LWPOLYLINE
  5
2C
100
AcDbEntity
  8
LAYER22
370
    18
390
0
  6
Continuous
 62
     1
100
AcDbPolyline
 90
        2
 70
     0
 10
-635.765686
 20
763.5
 10
-635.765686
 20
753.5
  0
LWPOLYLINE
  5
2D
100
AcDbEntity
  8
LAYER22
370
    18
390
0
  6
Continuous
 62
     1
100
AcDbPolyline
 90
        2
 70
     0
 10
-335.765656
 20
763.5
 10
-335.765656
 20
753.5
  0
MTEXT
  5
2E
100
AcDbEntity
  8
LAYER22
390
0
 62
     2
100
AcDbMText
 10
-485.765625
 20
765.166687
 30
0.0
 40
11.25
 41
0.0
 71
     8
 72
     1
  1
300
 11
1.0
 21
0.0
 31
0.0
 73
     1
 44
1.333333
  0
LWPOLYLINE
  5
2F
100
AcDbEntity
  8
LAYER22
370
    18
390
0
  6
Continuous
 62
     1
100
AcDbPolyline
 90
        4
 70
     1
 10
-635.765625
 20
-1760.0
 10
-635.765625
 20
868.0
 10
-335.765625
 20
868.0
 10
-335.765625
 20
-1760.0
  0
LWPOLYLINE
  5
30
100
AcDbEntity
  8
LAYER22
370
    18
390
0
  6
Continuous
 62
     1
100
AcDbPolyline
 90
        4
 70
     1
 10
-335.765625
 20
-1760.0
 10
-335.765625
 20
868.0
 10
-305.765625
 20
868.0
 10
-305.765625
 20
-1760.0
  0
LWPOLYLINE
  5
31
100
AcDbEntity
  8
LAYER22
370
    25
390
0
  6
Continuous
 62
     2
100
AcDbPolyline
 90
       23
 70
     0
 10
-485.765625
 20
920.0
 10
-476.427734
 20
919.999512
 10
-476.427734
 20
918.384766
 10
-466.837891
 20
918.384766
 42
-0.414214
 10
-465.222656
 20
916.769531
 10
-465.222656
 20
894.056641
 10
-464.489258
 20
889.895508
 42
-0.466313
 10
-466.080078
 20
887.999939
 10
-476.78125
 20
888.0
 42
-0.469821
 10
-478.368622
 20
889.91394
 10
-477.588867
 20
894.056641
 10
-476.580078
 20
894.056641
 10
-476.580078
 20
890.725586
 10
-475.873047
 20
890.019043
 10
-470.320313
 20
890.019043
 10
-469.614258
 20
890.725586
 10
-469.614258
 20
894.056641
 10
-467.242188
 20
894.056641
 10
-467.242188
 20
913.337402
 42
0.414214
 10
-470.270508
 20
916.365723
 10
-479.355469
 20
916.365723
 10
-479.355469
 20
917.879883
 10
-485.765625
 20
917.879883
  0
LWPOLYLINE
  5
32
100
AcDbEntity
  8
LAYER22
370
    25
390
0
  6
Continuous
 62
     2
100
AcDbPolyline
 90
       23
 70
     0
 10
-485.765625
 20
920.0
 10
-495.103516
 20
919.999512
 10
-495.103516
 20
918.384766
 10
-504.693359
 20
918.384766
 42
0.414214
 10
-506.308594
 20
916.769531
 10
-506.308594
 20
894.056641
 10
-507.041992
 20
889.895508
 42
0.466313
 10
-505.451172
 20
887.999939
 10
-494.75
 20
888.0
 42
0.469821
 10
-493.162628
 20
889.91394
 10
-493.942383
 20
894.056641
 10
-494.951172
 20
894.056641
 10
-494.951172
 20
890.725586
 10
-495.658203
 20
890.019043
 10
-501.210938
 20
890.019043
 10
-501.916992
 20
890.725586
 10
-501.916992
 20
894.056641
 10
-504.289063
 20
894.056641
 10
-504.289063
 20
913.337402
 42
-0.414214
 10
-501.260742
 20
916.365723
 10
-492.175781
 20
916.365723
 10
-492.175781
 20
917.879883
 10
-485.765625
 20
917.879883
  0
LWPOLYLINE
  5
33
100
AcDbEntity
  8
LAYER22
370
    18
390
0
  6
Continuous
 62
     1
100
AcDbPolyline
 90
        6
 70
     1
 10
-480.766602
 20
917.879883
 10
-490.764648
 20
917.879883
 10
-487.807617
 20
920.879883
 10
-487.807617
 20
930.879883
 10
-483.807617
 20
930.879883
 10
-483.807617
 20
920.879883
  0
LWPOLYLINE
  5
34
100
AcDbEntity
  8
LAYER22
370
    18
390
0
  6
Continuous
 62
     1
100
AcDbPolyline
 90
        2
 70
     0
 10
-487.807617
 20
920.879883
 10
-483.807617
 20
920.879883
  0
LWPOLYLINE
  5
35
100
AcDbEntity
  8
LAYER22
370
    18
390
0
  6
Continuous
 62
     1
100
AcDbPolyline
 90
       22
 70
     0
 10
-487.807617
 20
930.879883
 10
-483.95752
 20
933.129883
 10
-487.514893
 20
935.270508
 10
-484.25293
 20
937.560303
 10
-487.19873
 20
940.012207
 10
-484.56958
 20
942.311035
 10
-486.890625
 20
944.634766
 10
-484.872803
 20
946.860352
 10
-486.605713
 20
948.905029
 10
-485.131104
 20
950.732178
 10
-486.375732
 20
952.355957
 10
-485.313721
 20
953.473877
 10
-486.229004
 20
954.557373
 10
-485.455811
 20
955.602051
 10
-486.094971
 20
956.570068
 10
-485.56958
 20
957.311768
 10
-485.986572
 20
958.192383
 10
-485.665039
 20
958.743408
 10
-485.925049
 20
959.116455
 10
-485.726807
 20
959.66748
 10
-485.863525
 20
960.039063
 10
-485.765625
 20
960.870117
  0
LWPOLYLINE
  5
36
100
AcDbEntity
  8
LAYER22
370
    18
390
0
  6
Continuous
 62
     1
100
AcDbPolyline
 90
        4
 70
     1
 10
-501.462891
 20
914.246094
 10
-495.40625
 20
914.246094
 10
-495.40625
 20
890.019043
 10
-501.462891
 20
890.019043
  0
LWPOLYLINE
  5
37
100
AcDbEntity
  8
LAYER22
370
    18
390
0
  6
Continuous
 62
     1
100
AcDbPolyline
 90
        4
 70
     1
 10
-495.40625
 20
908.693848
 10
-476.125
 20
908.693848
 10
-476.125
 20
895.570801
 10
-495.40625
 20
895.570801
  0
LWPOLYLINE
  5
38
100
AcDbEntity
  8
LAYER22
370
    18
390
0
  6
Continuous
 62
     1
100
AcDbPolyline
 90
        4
 70
     1
 10
-476.125
 20
914.246094
 10
-470.068359
 20
914.246094
 10
-470.068359
 20
890.019043
 10
-476.125
 20
890.019043
  0
LWPOLYLINE
  5
39
100
AcDbEntity
  8
LAYER22
370
    18
390
0
  6
Continuous
 62
     1
100
AcDbPolyline
 90
        4
 70
     1
 10
-480.71875
 20
895.570801
 10
-480.71875
 20
868.0
 10
-490.8125
 20
868.0
 10
-490.8125
 20
895.570801
  0
LWPOLYLINE
  5
3A
100
AcDbEntity
  8
LAYER22
370
    25
390
0
  6
Continuous
 62
     2
100
AcDbPolyline
 90
        4
 70
     1
 10
-463.765625
 20
888.0
 10
-463.765625
 20
920.0
 10
-313.765625
 20
920.0
 10
-313.765625
 20
888.0
  0
LWPOLYLINE
  5
3B
100
AcDbEntity
  8
LAYER22
370
    25
390
0
  6
Continuous
 62
     2
100
AcDbPolyline
 90
        4
 70
     1
 10
-657.765625
 20
888.0
 10
-657.765625
 20
920.0
 10
-507.765625
 20
920.0
 10
-507.765625
 20
888.0
  0
LWPOLYLINE
  5
3C
100
AcDbEntity
  8
LAYER22
370
    18
390
0
  6
Continuous
 62
     1
100
AcDbPolyline
 90
        4
 70
     1
 10
-665.765625
 20
-1760.0
 10
-665.765625
 20
868.0
 10
-635.765625
 20
868.0
 10
-635.765625
 20
-1760.0
  0
LWPOLYLINE
  5
3D
100
AcDbEntity
  8
LAYER22
370
    13
390
0
  6
DASHDOT
 62
     5
100
AcDbPolyline
 90
        2
 70
     0
 10
-485.765625
 20
920.0
 10
-485.765625
 20
-1760.0
  0
LWPOLYLINE
  5
3E
100
AcDbEntity
  8
LAYER22
370
    18
390
0
  6
Continuous
 62
     1
100
AcDbPolyline
 90
        4
 70
     1
 10
-651.265625
 20
-1760.0
 10
-320.265625
 20
-1760.0
 10
-320.265625
 20
-1780.0
 10
-651.265625
 20
-1780.0
  0
LWPOLYLINE
  5
3F
100
AcDbEntity
  8
LAYER22
370
    18
390
0
  6
Continuous
 62
     1
100
AcDbPolyline
 90
        4
 70
     1
 10
-650.765625
 20
888.0
 10
-319.765625
 20
888.0
 10
-319.765625
 20
868.0
 10
-650.765625
 20
868.0
  0
LWPOLYLINE
  5
40
100
AcDbEntity
  8
LAYER22
370
    25
390
0
  6
Continuous
 62
     2
100
AcDbPolyline
 90
       16
 70
     1
 10
72.730057
 20
573.694702
 10
332.534882
 20
723.699585
 10
335.034973
 20
719.369507
 10
328.972839
 20
715.869385
 10
328.427429
 20
716.814026
 42
1.0
 10
330.503174
 20
713.218872
 10
329.97287
 20
714.137329
 10
336.035004
 20
717.637451
 10
338.535065
 20
713.307373
 10
78.730255
 20
563.302551
 10
76.230171
 20
567.632629
 10
82.229706
 20
571.096619
 10
82.759995
 20
570.178162
 42
1.035421
 10
80.684242
 20
573.773315
 10
81.229668
 20
572.828613
 10
75.230141
 20
569.364624
  0
LWPOLYLINE
  5
41
100
AcDbEntity
  8
LAYER22
370
    25
390
0
  6
Continuous
 62
     2
100
AcDbPolyline
 90
       22
 70
     0
 10
346.601685
 20
721.546265
 10
341.777954
 20
721.546204
 10
329.718018
 20
714.583557
 10
330.498291
 20
713.231873
 42
-1.0
 10
328.437653
 20
716.80127
 10
329.217987
 20
715.449524
 10
338.465973
 20
720.788574
 10
332.223236
 20
723.171143
 10
332.579193
 20
724.105225
 10
339.582153
 20
721.433105
 10
341.144165
 20
722.334961
 10
341.21051
 20
726.227539
 10
339.125519
 20
727.642517
 10
339.125977
 20
729.59552
 10
339.622559
 20
730.09552
 10
346.601563
 20
730.095459
 10
346.601563
 20
729.09552
 10
340.125977
 20
729.095581
 10
340.091827
 20
728.104004
 10
342.144104
 20
726.477417
 10
342.144165
 20
722.546265
 10
346.601685
 20
722.546204
  0
LWPOLYLINE
  5
42
100
AcDbEntity
  8
LAYER22
370
    25
390
0
  6
Continuous
 62
     2
100
AcDbPolyline
 90
       22
 70
     0
 10
346.601685
 20
721.546265
 10
351.425415
 20
721.546387
 10
363.485596
 20
714.584473
 10
362.705322
 20
713.232727
 42
1.0
 10
364.766235
 20
716.802124
 10
363.985565
 20
715.450317
 10
354.737946
 20
720.789001
 10
360.980072
 20
723.171753
 10
360.623627
 20
724.105896
 10
353.621704
 20
721.433533
 10
352.059204
 20
722.335083
 10
351.992249
 20
726.227722
 10
354.077179
 20
727.642883
 10
354.077148
 20
729.595825
 10
353.580078
 20
730.095764
 10
346.601563
 20
730.095459
 10
346.601563
 20
729.09552
 10
353.077148
 20
729.096008
 10
353.111359
 20
728.10437
 10
351.059143
 20
726.477783
 10
351.059204
 20
722.546448
 10
346.601685
 20
722.546204
  0
LWPOLYLINE
  5
43
100
AcDbEntity
  8
LAYER22
370
    25
390
0
  6
Continuous
 62
     2
100
AcDbPolyline
 90
       22
 70
     0
 10
64.652214
 20
565.4823
 10
69.475945
 20
565.482361
 10
81.535896
 20
572.445007
 10
80.7556
 20
573.796692
 42
-1.0
 10
82.816261
 20
570.227295
 10
82.035912
 20
571.579041
 10
72.787941
 20
566.23999
 10
79.030655
 20
563.857422
 10
78.674713
 20
562.92334
 10
71.671745
 20
565.595459
 10
70.109749
 20
564.693604
 10
70.043396
 20
560.801025
 10
72.12838
 20
559.386047
 10
72.127922
 20
557.433044
 10
71.631348
 20
556.933044
 10
64.652344
 20
556.933105
 10
64.652328
 20
557.933044
 10
71.127914
 20
557.932983
 10
71.162079
 20
558.924561
 10
69.10981
 20
560.551147
 10
69.109749
 20
564.4823
 10
64.652229
 20
564.482361
  0
LWPOLYLINE
  5
44
100
AcDbEntity
  8
LAYER22
370
    25
390
0
  6
Continuous
 62
     2
100
AcDbPolyline
 90
       22
 70
     0
 10
64.652214
 20
565.4823
 10
59.828484
 20
565.482178
 10
47.768318
 20
572.444092
 10
48.548573
 20
573.795837
 42
1.0
 10
46.487659
 20
570.22644
 10
47.268333
 20
571.578247
 10
56.515972
 20
566.239563
 10
50.273819
 20
563.856812
 10
50.63028
 20
562.922668
 10
57.632195
 20
565.595032
 10
59.194706
 20
564.693481
 10
59.261662
 20
560.800842
 10
57.17672
 20
559.385681
 10
57.17675
 20
557.432739
 10
57.673828
 20
556.9328
 10
64.652344
 20
556.933105
 10
64.652328
 20
557.933044
 10
58.176743
 20
557.932556
 10
58.142548
 20
558.924194
 10
60.194771
 20
560.550781
 10
60.19471
 20
564.482117
 10
64.652229
 20
564.482361
  0
LWPOLYLINE
  5
45
100
AcDbEntity
  8
LAYER22
370
    25
390
0
  6
Continuous
 62
     2
100
AcDbPolyline
 90
       11
 70
     0
 10
-79.176758
 20
644.487305
 10
-73.46875
 20
642.470459
 10
-63.092773
 20
636.421753
 10
-62.313477
 20
637.773438
 42
-0.99997
 10
-64.373917
 20
634.203796
 10
-63.592773
 20
635.555786
 10
-72.84082
 20
640.894531
 10
-71.782227
 20
634.297363
 10
-72.770508
 20
634.138916
 10
-73.957031
 20
641.538818
 10
-79.544922
 20
643.557251
  0
LWPOLYLINE
  5
46
100
AcDbEntity
  8
LAYER22
370
    25
390
0
  6
Continuous
 62
     2
100
AcDbPolyline
 90
       11
 70
     0
 10
-79.176758
 20
644.487305
 10
-83.514648
 20
645.826172
 10
-83.514648
 20
657.0
 10
-81.954102
 20
657.000122
 42
1.0
 10
-86.075195
 20
657.000366
 10
-84.514648
 20
657.000122
 10
-84.514648
 20
646.322144
 10
-89.700195
 20
650.536865
 10
-90.331055
 20
649.761108
 10
-84.514648
 20
645.033203
 10
-79.544922
 20
643.557251
  0
LWPOLYLINE
  5
47
100
AcDbEntity
  8
LAYER22
370
    18
390
0
  6
Continuous
 62
     1
100
AcDbPolyline
 90
        6
 70
     1
 10
-78.0
 20
683.079102
 10
-78.0
 20
673.081055
 10
-81.0
 20
676.038086
 10
-91.0
 20
676.038086
 10
-91.0
 20
680.038086
 10
-81.0
 20
680.038086
  0
LWPOLYLINE
  5
48
100
AcDbEntity
  8
LAYER22
370
    18
390
0
  6
Continuous
 62
     1
100
AcDbPolyline
 90
        2
 70
     0
 10
-81.0
 20
676.038086
 10
-81.0
 20
680.038086
  0
LWPOLYLINE
  5
49
100
AcDbEntity
  8
LAYER22
370
    18
390
0
  6
Continuous
 62
     1
100
AcDbPolyline
 90
       22
 70
     0
 10
-91.0
 20
676.038086
 10
-93.25
 20
679.888184
 10
-95.390625
 20
676.330811
 10
-97.68042
 20
679.592773
 10
-100.132324
 20
676.646973
 10
-102.431152
 20
679.276123
 10
-104.754883
 20
676.955078
 10
-106.980469
 20
678.9729
 10
-109.025146
 20
677.23999
 10
-110.852295
 20
678.7146
 10
-112.476074
 20
677.469971
 10
-113.593994
 20
678.531982
 10
-114.67749
 20
677.616699
 10
-115.722168
 20
678.389893
 10
-116.690186
 20
677.750732
 10
-117.431885
 20
678.276123
 10
-118.3125
 20
677.859131
 10
-118.863525
 20
678.180664
 10
-119.236572
 20
677.920654
 10
-119.787598
 20
678.118896
 10
-120.15918
 20
677.982178
 10
-120.990234
 20
678.080078
  0
LWPOLYLINE
  5
4A
100
AcDbEntity
  8
LAYER22
370
    25
390
0
  6
Continuous
 62
     2
100
AcDbPolyline
 90
       16
 70
     1
 10
56.573483
 20
573.695984
 10
-66.416435
 20
644.671204
 10
-68.915558
 20
640.340576
 10
-62.852676
 20
636.841797
 10
-62.307457
 20
637.78656
 42
-1.0
 10
-64.382416
 20
634.190979
 10
-63.852329
 20
635.109558
 10
-69.915215
 20
638.608337
 10
-72.414337
 20
634.27771
 10
50.575577
 20
563.30249
 10
53.074703
 20
567.633118
 10
47.074413
 20
571.095764
 10
46.544323
 20
570.177185
 42
-1.035421
 10
48.619282
 20
573.772827
 10
48.074062
 20
572.828003
 10
54.074356
 20
569.365356
  0
LWPOLYLINE
  5
4B
100
AcDbEntity
  8
LAYER22
370
    18
390
0
  6
DASHED
 62
     1
100
AcDbPolyline
 90
        4
 70
     1
 10
193.625
 20
652.51416
 10
193.625
 20
658.51416
 10
217.625
 20
658.51416
 10
217.625
 20
652.51416
  0
LWPOLYLINE
  5
4C
100
AcDbEntity
  8
LAYER22
370
    18
390
0
  6
DASHED
 62
     1
100
AcDbPolyline
 90
        4
 70
     1
 10
199.125
 20
652.51416
 10
212.125
 20
652.51416
 10
212.125
 20
634.51416
 10
199.125
 20
634.51416
  0
LWPOLYLINE
  5
4D
100
AcDbEntity
  8
LAYER22
370
    18
390
0
  6
DASHED
 62
     1
100
AcDbPolyline
 90
        4
 70
     1
 10
193.625
 20
628.51416
 10
193.625
 20
634.51416
 10
217.625
 20
634.51416
 10
217.625
 20
628.51416
  0
CIRCLE
  5
4E
100
AcDbEntity
  8
LAYER22
390
0
  6
Continuous
 62
     1
100
AcDbCircle
 10
205.625
 20
643.51416
 30
0.0
 40
6.0
  0
CIRCLE
  5
4F
100
AcDbEntity
  8
LAYER22
390
0
  6
Continuous
 62
     1
100
AcDbCircle
 10
205.625
 20
643.51416
 30
0.0
 40
5.0
  0
LWPOLYLINE
  5
50
100
AcDbEntity
  8
LAYER22
370
    18
390
0
  6
DASHED
 62
     1
100
AcDbPolyline
 90
        2
 70
     0
 10
203.125
 20
639.184082
 10
208.125
 20
647.84436
  0
LWPOLYLINE
  5
51
100
AcDbEntity
  8
LAYER22
370
    25
390
0
  6
Continuous
 62
     2
100
AcDbPolyline
 90
       22
 70
     0
 10
910.496216
 20
721.547974
 10
905.672485
 20
721.547913
 10
893.612549
 20
714.585266
 10
894.392822
 20
713.233582
 42
-1.0
 10
892.332153
 20
716.802979
 10
893.112549
 20
715.451233
 10
902.360474
 20
720.790283
 10
896.117798
 20
723.172852
 10
896.473694
 20
724.106934
 10
903.476685
 20
721.434814
 10
905.038696
 20
722.33667
 10
905.105042
 20
726.229248
 10
903.020081
 20
727.644226
 10
903.020508
 20
729.597229
 10
903.51709
 20
730.097229
 10
910.496094
 20
730.097168
 10
910.496094
 20
729.097229
 10
904.020508
 20
729.09729
 10
903.986328
 20
728.105713
 10
906.038635
 20
726.479126
 10
906.038696
 20
722.547974
 10
910.496216
 20
722.547913
  0
LWPOLYLINE
  5
52
100
AcDbEntity
  8
LAYER22
370
    25
390
0
  6
Continuous
 62
     2
100
AcDbPolyline
 90
       22
 70
     0
 10
910.496216
 20
721.547974
 10
915.319946
 20
721.548096
 10
927.380127
 20
714.586182
 10
926.599854
 20
713.234436
 42
1.0
 10
928.660767
 20
716.803833
 10
927.880127
 20
715.452026
 10
918.632446
 20
720.79071
 10
924.874634
 20
723.173462
 10
924.518127
 20
724.107605
 10
917.516235
 20
721.435242
 10
915.953735
 20
722.336792
 10
915.88678
 20
726.229431
 10
917.971741
 20
727.644592
 10
917.97168
 20
729.597534
 10
917.474609
 20
730.097473
 10
910.496094
 20
730.097168
 10
910.496094
 20
729.097229
 10
916.97168
 20
729.097717
 10
917.005859
 20
728.106079
 10
914.953674
 20
726.479492
 10
914.953735
 20
722.548157
 10
910.496216
 20
722.547913
  0
LWPOLYLINE
  5
53
100
AcDbEntity
  8
LAYER22
370
    18
390
0
  6
Continuous
 62
     1
100
AcDbPolyline
 90
        6
 70
     1
 10
1383.0
 20
637.98584
 10
1383.0
 20
647.983887
 10
1386.0
 20
645.026855
 10
1396.0
 20
645.026855
 10
1396.0
 20
641.026855
 10
1386.0
 20
641.026855
  0
LWPOLYLINE
  5
54
100
AcDbEntity
  8
LAYER22
370
    18
390
0
  6
Continuous
 62
     1
100
AcDbPolyline
 90
        2
 70
     0
 10
1386.0
 20
645.026855
 10
1386.0
 20
641.026855
  0
LWPOLYLINE
  5
55
100
AcDbEntity
  8
LAYER22
370
    18
390
0
  6
Continuous
 62
     1
100
AcDbPolyline
 90
       22
 70
     0
 10
1396.0
 20
645.026855
 10
1398.25
 20
641.176758
 10
1400.390625
 20
644.734131
 10
1402.68042
 20
641.472168
 10
1405.132324
 20
644.417969
 10
1407.431152
 20
641.788818
 10
1409.754883
 20
644.109863
 10
1411.980469
 20
642.092041
 10
1414.025146
 20
643.824951
 10
1415.852295
 20
642.350342
 10
1417.476074
 20
643.594971
 10
1418.593994
 20
642.532959
 10
1419.67749
 20
643.448242
 10
1420.722168
 20
642.675049
 10
1421.690186
 20
643.314209
 10
1422.431885
 20
642.788818
 10
1423.3125
 20
643.205811
 10
1423.863525
 20
642.884277
 10
1424.236572
 20
643.144287
 10
1424.787598
 20
642.946045
 10
1425.15918
 20
643.082764
 10
1425.990234
 20
642.984863
  0
LWPOLYLINE
  5
56
100
AcDbEntity
  8
LAYER22
370
    25
390
0
  6
Continuous
 62
     2
100
AcDbPolyline
 90
       18
 70
     0
 10
1383.0
 20
642.984863
 10
1383.0
 20
649.664063
 42
-0.268065
 10
1384.25
 20
651.829041
 10
1391.825195
 20
656.202637
 10
1392.075195
 20
656.635742
 10
1392.075195
 20
658.684814
 10
1410.0
 20
658.684814
 10
1410.0
 20
656.684814
 10
1407.5
 20
656.684814
 10
1407.5
 20
657.284668
 10
1402.326172
 20
657.284668
 10
1402.326172
 20
650.584961
 10
1400.92627
 20
650.584961
 10
1400.92627
 20
657.284668
 10
1393.475098
 20
657.284668
 10
1393.475098
 20
654.384277
 10
1386.5
 20
650.356934
 10
1386.5
 20
642.984863
  0
LWPOLYLINE
  5
57
100
AcDbEntity
  8
LAYER22
370
    25
390
0
  6
Continuous
 62
     2
100
AcDbPolyline
 90
       18
 70
     0
 10
1383.0
 20
642.984863
 10
1383.0
 20
636.305664
 42
0.268065
 10
1384.25
 20
634.140686
 10
1391.825195
 20
629.76709
 10
1392.075195
 20
629.333984
 10
1392.075195
 20
627.284912
 10
1410.0
 20
627.284912
 10
1410.0
 20
629.284912
 10
1407.5
 20
629.284912
 10
1407.5
 20
628.685059
 10
1402.326172
 20
628.685059
 10
1402.326172
 20
635.384766
 10
1400.92627
 20
635.384766
 10
1400.92627
 20
628.685059
 10
1393.475098
 20
628.685059
 10
1393.475098
 20
631.585449
 10
1386.5
 20
635.612793
 10
1386.5
 20
642.984863
  0
LWPOLYLINE
  5
58
100
AcDbEntity
  8
LAYER22
370
    25
390
0
  6
Continuous
 62
     2
100
AcDbPolyline
 90
       13
 70
     0
 10
1185.546875
 20
642.890137
 10
1185.546875
 20
652.712769
 10
1191.630371
 20
656.257202
 42
0.767315
 10
1191.380371
 20
657.190186
 10
1178.571289
 20
657.190186
 10
1178.571289
 20
656.59021
 10
1176.071289
 20
656.59021
 10
1176.071289
 20
658.59021
 10
1195.672363
 20
658.59021
 42
-0.767332
 10
1196.047363
 20
657.190674
 10
1188.59668
 20
652.889282
 42
0.267954
 10
1187.346558
 20
650.724121
 10
1187.34668
 20
642.890137
  0
LWPOLYLINE
  5
59
100
AcDbEntity
  8
LAYER22
370
    25
390
0
  6
Continuous
 62
     2
100
AcDbPolyline
 90
       13
 70
     0
 10
1185.546875
 20
642.890137
 10
1185.546875
 20
633.067505
 10
1191.630371
 20
629.523071
 42
-0.767315
 10
1191.380371
 20
628.590088
 10
1178.571289
 20
628.590088
 10
1178.571289
 20
629.190063
 10
1176.071289
 20
629.190063
 10
1176.071289
 20
627.190063
 10
1195.672363
 20
627.190063
 42
0.767332
 10
1196.047363
 20
628.5896
 10
1188.59668
 20
632.890991
 42
-0.267954
 10
1187.346558
 20
635.056152
 10
1187.34668
 20
642.890137
  0
LWPOLYLINE
  5
5A
100
AcDbEntity
  8
LAYER22
370
    13
390
0
  6
DASHDOT
 62
     5
100
AcDbPolyline
 90
        2
 70
     0
 10
-90.0
 20
643.0
 10
1410.0
 20
643.0
  0
LWPOLYLINE
  5
5B
100
AcDbEntity
  8
LAYER22
370
    25
390
0
  6
Continuous
 62
     2
100
AcDbPolyline
 90
       10
 70
     1
 10
1060.546875
 20
655.390137
 10
1185.546875
 20
655.390137
 10
1185.546875
 20
630.390137
 10
1060.546875
 20
630.390137
 10
1060.546875
 20
641.890137
 10
1067.474609
 20
641.890137
 10
1067.474609
 20
640.82959
 42
1.035178
 10
1067.474609
 20
644.980957
 10
1067.474609
 20
643.890137
 10
1060.546875
 20
643.890137
  0
LWPOLYLINE
  5
5C
100
AcDbEntity
  8
LAYER22
370
    25
390
0
  6
Continuous
 62
     2
100
AcDbPolyline
 90
       27
 70
     1
 10
1037.516602
 20
649.207764
 42
-1.035231
 10
1039.592285
 20
652.803345
 10
1038.796875
 20
651.425415
 10
1048.043945
 20
646.086548
 10
1046.983398
 20
652.683228
 10
1047.970703
 20
652.841919
 10
1049.160645
 20
645.441895
 10
1052.638184
 20
643.338257
 10
1057.672852
 20
643.338257
 10
1059.726074
 20
655.488525
 10
1060.712402
 20
655.321899
 10
1058.69873
 20
643.405151
 10
1067.473633
 20
643.405151
 10
1067.473633
 20
644.981079
 42
-1.035174
 10
1067.473633
 20
640.829224
 10
1067.473633
 20
642.405151
 10
1058.69873
 20
642.405151
 10
1060.712402
 20
630.488525
 10
1059.726074
 20
630.321899
 10
1057.684082
 20
642.405151
 10
1052.388184
 20
642.405151
 10
1052.138184
 20
642.47229
 10
1048.660645
 20
644.575806
 10
1041.658203
 20
641.903564
 10
1041.301758
 20
642.837769
 10
1047.544434
 20
645.220215
 10
1038.238281
 20
650.593262
  0
LWPOLYLINE
  5
5D
100
AcDbEntity
  8
LAYER22
370
    18
390
0
  6
DASHED
 62
     1
100
AcDbPolyline
 90
        4
 70
     1
 10
1079.25
 20
651.905273
 10
1079.25
 20
657.905273
 10
1103.25
 20
657.905273
 10
1103.25
 20
651.905273
  0
LWPOLYLINE
  5
5E
100
AcDbEntity
  8
LAYER22
370
    18
390
0
  6
DASHED
 62
     1
100
AcDbPolyline
 90
        4
 70
     1
 10
1084.75
 20
651.905273
 10
1097.75
 20
651.905273
 10
1097.75
 20
633.905273
 10
1084.75
 20
633.905273
  0
LWPOLYLINE
  5
5F
100
AcDbEntity
  8
LAYER22
370
    18
390
0
  6
DASHED
 62
     1
100
AcDbPolyline
 90
        4
 70
     1
 10
1079.25
 20
627.905273
 10
1079.25
 20
633.905273
 10
1103.25
 20
633.905273
 10
1103.25
 20
627.905273
  0
CIRCLE
  5
60
100
AcDbEntity
  8
LAYER22
390
0
  6
Continuous
 62
     1
100
AcDbCircle
 10
1091.25
 20
642.905273
 30
0.0
 40
6.0
  0
CIRCLE
  5
61
100
AcDbEntity
  8
LAYER22
390
0
  6
Continuous
 62
     1
100
AcDbCircle
 10
1091.25
 20
642.905273
 30
0.0
 40
5.0
  0
LWPOLYLINE
  5
62
100
AcDbEntity
  8
LAYER22
370
    18
390
0
  6
DASHED
 62
     1
100
AcDbPolyline
 90
        2
 70
     0
 10
1088.75
 20
638.575195
 10
1093.75
 20
647.235474
  0
LWPOLYLINE
  5
63
100
AcDbEntity
  8
LAYER22
370
    18
390
0
  6
DASHED
 62
     1
100
AcDbPolyline
 90
        4
 70
     1
 10
1144.25
 20
651.905273
 10
1144.25
 20
657.905273
 10
1168.25
 20
657.905273
 10
1168.25
 20
651.905273
  0
LWPOLYLINE
  5
64
100
AcDbEntity
  8
LAYER22
370
    18
390
0
  6
DASHED
 62
     1
100
AcDbPolyline
 90
        4
 70
     1
 10
1149.75
 20
651.905273
 10
1162.75
 20
651.905273
 10
1162.75
 20
633.905273
 10
1149.75
 20
633.905273
  0
LWPOLYLINE
  5
65
100
AcDbEntity
  8
LAYER22
370
    18
390
0
  6
DASHED
 62
     1
100
AcDbPolyline
 90
        4
 70
     1
 10
1144.25
 20
627.905273
 10
1144.25
 20
633.905273
 10
1168.25
 20
633.905273
 10
1168.25
 20
627.905273
  0
CIRCLE
  5
66
100
AcDbEntity
  8
LAYER22
390
0
  6
Continuous
 62
     1
100
AcDbCircle
 10
1156.25
 20
642.905273
 30
0.0
 40
6.0
  0
CIRCLE
  5
67
100
AcDbEntity
  8
LAYER22
390
0
  6
Continuous
 62
     1
100
AcDbCircle
 10
1156.25
 20
642.905273
 30
0.0
 40
5.0
  0
LWPOLYLINE
  5
68
100
AcDbEntity
  8
LAYER22
370
    18
390
0
  6
DASHED
 62
     1
100
AcDbPolyline
 90
        2
 70
     0
 10
1153.75
 20
638.575195
 10
1158.75
 20
647.235474
  0
LWPOLYLINE
  5
69
100
AcDbEntity
  8
LAYER22
370
    25
390
0
  6
Continuous
 62
     2
100
AcDbPolyline
 90
       10
 70
     1
 10
-90.0
 20
650.0
 10
-90.0
 20
705.0
 10
-78.0
 20
705.0
 10
-78.0
 20
650.0
 10
-83.0
 20
650.0
 10
-83.0
 20
656.928711
 10
-81.939453
 20
656.928711
 42
1.034934
 10
-86.09082
 20
656.928711
 10
-85.0
 20
656.928711
 10
-85.0
 20
650.0
  0
LWPOLYLINE
  5
6A
100
AcDbEntity
  8
LAYER22
370
    18
390
0
  6
Continuous
 62
     1
100
AcDbPolyline
 90
        6
 70
     1
 10
-78.0
 20
683.079102
 10
-78.0
 20
673.081055
 10
-81.0
 20
676.038086
 10
-91.0
 20
676.038086
 10
-91.0
 20
680.038086
 10
-81.0
 20
680.038086
  0
LWPOLYLINE
  5
6B
100
AcDbEntity
  8
LAYER22
370
    18
390
0
  6
Continuous
 62
     1
100
AcDbPolyline
 90
        2
 70
     0
 10
-81.0
 20
676.038086
 10
-81.0
 20
680.038086
  0
LWPOLYLINE
  5
6C
100
AcDbEntity
  8
LAYER22
370
    18
390
0
  6
Continuous
 62
     1
100
AcDbPolyline
 90
       22
 70
     0
 10
-91.0
 20
676.038086
 10
-93.25
 20
679.888184
 10
-95.390625
 20
676.330811
 10
-97.68042
 20
679.592773
 10
-100.132324
 20
676.646973
 10
-102.431152
 20
679.276123
 10
-104.754883
 20
676.955078
 10
-106.980469
 20
678.9729
 10
-109.025146
 20
677.23999
 10
-110.852295
 20
678.7146
 10
-112.476074
 20
677.469971
 10
-113.593994
 20
678.531982
 10
-114.67749
 20
677.616699
 10
-115.722168
 20
678.389893
 10
-116.690186
 20
677.750732
 10
-117.431885
 20
678.276123
 10
-118.3125
 20
677.859131
 10
-118.863525
 20
678.180664
 10
-119.236572
 20
677.920654
 10
-119.787598
 20
678.118896
 10
-120.15918
 20
677.982178
 10
-120.990234
 20
678.080078
  0
LWPOLYLINE
  5
6D
100
AcDbEntity
  8
LAYER22
370
    25
390
0
  6
Continuous
 62
     2
100
AcDbPolyline
 90
       16
 70
     1
 10
620.469177
 20
573.695679
 10
360.664337
 20
723.700562
 10
358.164246
 20
719.370483
 10
364.226379
 20
715.870361
 10
364.77179
 20
716.815002
 42
-1.0
 10
362.696045
 20
713.219849
 10
363.226349
 20
714.138306
 10
357.164215
 20
717.638428
 10
354.664154
 20
713.30835
 10
614.468994
 20
563.303528
 10
616.969055
 20
567.633606
 10
610.969543
 20
571.097595
 10
610.439209
 20
570.179138
 42
-1.035421
 10
612.514954
 20
573.774292
 10
611.969543
 20
572.82959
 10
617.969055
 20
569.365601
  0
LWPOLYLINE
  5
6E
100
AcDbEntity
  8
LAYER22
370
    25
390
0
  6
Continuous
 62
     2
100
AcDbPolyline
 90
       16
 70
     1
 10
636.628479
 20
573.696655
 10
896.43335
 20
723.701538
 10
898.933411
 20
719.37146
 10
892.871277
 20
715.871338
 10
892.325867
 20
716.815979
 42
1.0
 10
894.401611
 20
713.220825
 10
893.871338
 20
714.139282
 10
899.933411
 20
717.639404
 10
902.433533
 20
713.309326
 10
642.628662
 20
563.304504
 10
640.128601
 20
567.634583
 10
646.128113
 20
571.098572
 10
646.658447
 20
570.180115
 42
1.035421
 10
644.582703
 20
573.775269
 10
645.128113
 20
572.830566
 10
639.128601
 20
569.366577
  0
LWPOLYLINE
  5
6F
100
AcDbEntity
  8
LAYER22
370
    25
390
0
  6
Continuous
 62
     2
100
AcDbPolyline
 90
       22
 70
     0
 10
628.546753
 20
565.484009
 10
633.370483
 20
565.48407
 10
645.43042
 20
572.446716
 10
644.650146
 20
573.798401
 42
-1.0
 10
646.710815
 20
570.229004
 10
645.93042
 20
571.58075
 10
636.682495
 20
566.241699
 10
642.925171
 20
563.859131
 10
642.569275
 20
562.925049
 10
635.566284
 20
565.597168
 10
634.004272
 20
564.695313
 10
633.937927
 20
560.802734
 10
636.022888
 20
559.387756
 10
636.022461
 20
557.434753
 10
635.525879
 20
556.934753
 10
628.546875
 20
556.934814
 10
628.546875
 20
557.934753
 10
635.022461
 20
557.934692
 10
635.056641
 20
558.92627
 10
633.004333
 20
560.552856
 10
633.004272
 20
564.484009
 10
628.546753
 20
564.48407
  0
LWPOLYLINE
  5
70
100
AcDbEntity
  8
LAYER22
370
    25
390
0
  6
Continuous
 62
     2
100
AcDbPolyline
 90
       22
 70
     0
 10
628.546753
 20
565.484009
 10
623.723022
 20
565.483887
 10
611.662842
 20
572.445801
 10
612.443115
 20
573.797546
 42
1.0
 10
610.382202
 20
570.228149
 10
611.162842
 20
571.579956
 10
620.410522
 20
566.241272
 10
614.168335
 20
563.858521
 10
614.524841
 20
562.924377
 10
621.526733
 20
565.596741
 10
623.089233
 20
564.69519
 10
623.156189
 20
560.802551
 10
621.071228
 20
559.38739
 10
621.071289
 20
557.434448
 10
621.568359
 20
556.934509
 10
628.546875
 20
556.934814
 10
628.546875
 20
557.934753
 10
622.071289
 20
557.934265
 10
622.037109
 20
558.925903
 10
624.089294
 20
560.55249
 10
624.089233
 20
564.483826
 10
628.546753
 20
564.48407
  0
LWPOLYLINE
  5
71
100
AcDbEntity
  8
LAYER22
370
    18
390
0
  6
DASHED
 62
     1
100
AcDbPolyline
 90
        4
 70
     1
 10
757.523438
 20
652.516113
 10
757.523438
 20
658.516113
 10
781.523438
 20
658.516113
 10
781.523438
 20
652.516113
  0
LWPOLYLINE
  5
72
100
AcDbEntity
  8
LAYER22
370
    18
390
0
  6
DASHED
 62
     1
100
AcDbPolyline
 90
        4
 70
     1
 10
763.023438
 20
652.516113
 10
776.023438
 20
652.516113
 10
776.023438
 20
634.516113
 10
763.023438
 20
634.516113
  0
LWPOLYLINE
  5
73
100
AcDbEntity
  8
LAYER22
370
    18
390
0
  6
DASHED
 62
     1
100
AcDbPolyline
 90
        4
 70
     1
 10
757.523438
 20
628.516113
 10
757.523438
 20
634.516113
 10
781.523438
 20
634.516113
 10
781.523438
 20
628.516113
  0
CIRCLE
  5
74
100
AcDbEntity
  8
LAYER22
390
0
  6
Continuous
 62
     1
100
AcDbCircle
 10
769.523438
 20
643.516113
 30
0.0
 40
6.0
  0
CIRCLE
  5
75
100
AcDbEntity
  8
LAYER22
390
0
  6
Continuous
 62
     1
100
AcDbCircle
 10
769.523438
 20
643.516113
 30
0.0
 40
5.0
  0
LWPOLYLINE
  5
76
100
AcDbEntity
  8
LAYER22
370
    18
390
0
  6
DASHED
 62
     1
100
AcDbPolyline
 90
        2
 70
     0
 10
767.023438
 20
639.186035
 10
772.023438
 20
647.846313
  0
LWPOLYLINE
  5
77
100
AcDbEntity
  8
LAYER22
370
    25
390
0
  6
Continuous
 62
     2
100
AcDbPolyline
 90
       16
 70
     1
 10
918.572998
 20
713.33429
 10
1041.562866
 20
642.35907
 10
1044.062012
 20
646.689697
 10
1037.999146
 20
650.188477
 10
1037.453979
 20
649.243713
 42
-1.0
 10
1039.528931
 20
652.839294
 10
1038.998779
 20
651.920715
 10
1045.061646
 20
648.421936
 10
1047.560791
 20
652.752563
 10
924.570923
 20
723.727783
 10
922.071777
 20
719.397156
 10
928.072083
 20
715.934509
 10
928.602173
 20
716.853088
 42
-1.035421
 10
926.527222
 20
713.257446
 10
927.072449
 20
714.202271
 10
921.072144
 20
717.664917
  0
LWPOLYLINE
  5
78
100
AcDbEntity
  8
LAYER22
370
    18
390
0
  6
DASHED
 62
     1
100
AcDbPolyline
 90
        4
 70
     1
 10
-84.015625
 20
329.0
 10
-84.015625
 20
335.0
 10
-60.015625
 20
335.0
 10
-60.015625
 20
329.0
  0
LWPOLYLINE
  5
79
100
AcDbEntity
  8
LAYER22
370
    18
390
0
  6
DASHED
 62
     1
100
AcDbPolyline
 90
        4
 70
     1
 10
-78.515625
 20
329.0
 10
-65.515625
 20
329.0
 10
-65.515625
 20
311.0
 10
-78.515625
 20
311.0
  0
LWPOLYLINE
  5
7A
100
AcDbEntity
  8
LAYER22
370
    18
390
0
  6
DASHED
 62
     1
100
AcDbPolyline
 90
        4
 70
     1
 10
-84.015625
 20
305.0
 10
-84.015625
 20
311.0
 10
-60.015625
 20
311.0
 10
-60.015625
 20
305.0
  0
CIRCLE
  5
7B
100
AcDbEntity
  8
LAYER22
390
0
  6
Continuous
 62
     1
100
AcDbCircle
 10
-72.015625
 20
320.0
 30
0.0
 40
6.0
  0
CIRCLE
  5
7C
100
AcDbEntity
  8
LAYER22
390
0
  6
Continuous
 62
     1
100
AcDbCircle
 10
-72.015625
 20
320.0
 30
0.0
 40
5.0
  0
LWPOLYLINE
  5
7D
100
AcDbEntity
  8
LAYER22
370
    18
390
0
  6
DASHED
 62
     1
100
AcDbPolyline
 90
        2
 70
     0
 10
-74.515625
 20
315.669922
 10
-69.515625
 20
324.3302
  0
LWPOLYLINE
  5
7E
100
AcDbEntity
  8
LAYER22
370
    18
390
0
  6
Continuous
 62
     1
100
AcDbPolyline
 90
        6
 70
     1
 10
1383.0
 20
314.98584
 10
1383.0
 20
324.983887
 10
1386.0
 20
322.026855
 10
1396.0
 20
322.026855
 10
1396.0
 20
318.026855
 10
1386.0
 20
318.026855
  0
LWPOLYLINE
  5
7F
100
AcDbEntity
  8
LAYER22
370
    18
390
0
  6
Continuous
 62
     1
100
AcDbPolyline
 90
        2
 70
     0
 10
1386.0
 20
322.026855
 10
1386.0
 20
318.026855
  0
LWPOLYLINE
  5
80
100
AcDbEntity
  8
LAYER22
370
    18
390
0
  6
Continuous
 62
     1
100
AcDbPolyline
 90
       22
 70
     0
 10
1396.0
 20
322.026855
 10
1398.25
 20
318.176758
 10
1400.390625
 20
321.734131
 10
1402.68042
 20
318.472168
 10
1405.132324
 20
321.417969
 10
1407.431152
 20
318.788818
 10
1409.754883
 20
321.109863
 10
1411.980469
 20
319.092041
 10
1414.025146
 20
320.824951
 10
1415.852295
 20
319.350342
 10
1417.476074
 20
320.594971
 10
1418.593994
 20
319.532959
 10
1419.67749
 20
320.448242
 10
1420.722168
 20
319.675049
 10
1421.690186
 20
320.314209
 10
1422.431885
 20
319.788818
 10
1423.3125
 20
320.205811
 10
1423.863525
 20
319.884277
 10
1424.236572
 20
320.144287
 10
1424.787598
 20
319.946045
 10
1425.15918
 20
320.082764
 10
1425.990234
 20
319.984863
  0
LWPOLYLINE
  5
81
100
AcDbEntity
  8
LAYER22
370
    25
390
0
  6
Continuous
 62
     2
100
AcDbPolyline
 90
       18
 70
     0
 10
1383.0
 20
319.984863
 10
1383.0
 20
326.664063
 42
-0.268065
 10
1384.25
 20
328.829071
 10
1391.825195
 20
333.202637
 10
1392.075195
 20
333.635742
 10
1392.075195
 20
335.684814
 10
1410.0
 20
335.684814
 10
1410.0
 20
333.684814
 10
1407.5
 20
333.684814
 10
1407.5
 20
334.284668
 10
1402.326172
 20
334.284668
 10
1402.326172
 20
327.584961
 10
1400.92627
 20
327.584961
 10
1400.92627
 20
334.284668
 10
1393.475098
 20
334.284668
 10
1393.475098
 20
331.384277
 10
1386.5
 20
327.356934
 10
1386.5
 20
319.984863
  0
LWPOLYLINE
  5
82
100
AcDbEntity
  8
LAYER22
370
    25
390
0
  6
Continuous
 62
     2
100
AcDbPolyline
 90
       18
 70
     0
 10
1383.0
 20
319.984863
 10
1383.0
 20
313.305664
 42
0.268065
 10
1384.25
 20
311.140656
 10
1391.825195
 20
306.76709
 10
1392.075195
 20
306.333984
 10
1392.075195
 20
304.284912
 10
1410.0
 20
304.284912
 10
1410.0
 20
306.284912
 10
1407.5
 20
306.284912
 10
1407.5
 20
305.685059
 10
1402.326172
 20
305.685059
 10
1402.326172
 20
312.384766
 10
1400.92627
 20
312.384766
 10
1400.92627
 20
305.685059
 10
1393.475098
 20
305.685059
 10
1393.475098
 20
308.585449
 10
1386.5
 20
312.612793
 10
1386.5
 20
319.984863
  0
LWPOLYLINE
  5
83
100
AcDbEntity
  8
LAYER22
370
    25
390
0
  6
Continuous
 62
     2
100
AcDbPolyline
 90
       13
 70
     0
 10
97.234375
 20
319.984863
 10
97.234375
 20
329.807495
 10
103.317871
 20
333.351929
 42
0.767315
 10
103.067871
 20
334.284882
 10
90.258789
 20
334.284912
 10
90.258789
 20
333.684937
 10
87.758789
 20
333.684937
 10
87.758789
 20
335.684937
 10
107.359863
 20
335.684937
 42
-0.767332
 10
107.734856
 20
334.2854
 10
100.28418
 20
329.984009
 42
0.267954
 10
99.034096
 20
327.818848
 10
99.03418
 20
319.984863
  0
LWPOLYLINE
  5
84
100
AcDbEntity
  8
LAYER22
370
    25
390
0
  6
Continuous
 62
     2
100
AcDbPolyline
 90
       13
 70
     0
 10
97.234375
 20
319.984863
 10
97.234375
 20
310.162231
 10
103.317871
 20
306.617798
 42
-0.767315
 10
103.067871
 20
305.684845
 10
90.258789
 20
305.684814
 10
90.258789
 20
306.28479
 10
87.758789
 20
306.28479
 10
87.758789
 20
304.28479
 10
107.359863
 20
304.28479
 42
0.767332
 10
107.734856
 20
305.684326
 10
100.28418
 20
309.985718
 42
-0.267954
 10
99.034096
 20
312.150879
 10
99.03418
 20
319.984863
  0
LWPOLYLINE
  5
85
100
AcDbEntity
  8
LAYER22
370
    13
390
0
  6
DASHDOT
 62
     5
100
AcDbPolyline
 90
        2
 70
     0
 10
-90.0
 20
320.0
 10
1410.0
 20
320.0
  0
LWPOLYLINE
  5
86
100
AcDbEntity
  8
LAYER22
370
    25
390
0
  6
Continuous
 62
     2
100
AcDbPolyline
 90
       10
 70
     1
 10
-27.765625
 20
332.484863
 10
97.234375
 20
332.484863
 10
97.234375
 20
307.484863
 10
-27.765625
 20
307.484863
 10
-27.765625
 20
318.984863
 10
-20.837891
 20
318.984863
 10
-20.837891
 20
317.924316
 42
1.035178
 10
-20.837891
 20
322.075684
 10
-20.837891
 20
320.984863
 10
-27.765625
 20
320.984863
  0
LWPOLYLINE
  5
87
100
AcDbEntity
  8
LAYER22
370
    18
390
0
  6
DASHED
 62
     1
100
AcDbPolyline
 90
        4
 70
     1
 10
-9.0625
 20
329.0
 10
-9.0625
 20
335.0
 10
14.9375
 20
335.0
 10
14.9375
 20
329.0
  0
LWPOLYLINE
  5
88
100
AcDbEntity
  8
LAYER22
370
    18
390
0
  6
DASHED
 62
     1
100
AcDbPolyline
 90
        4
 70
     1
 10
-3.5625
 20
329.0
 10
9.4375
 20
329.0
 10
9.4375
 20
311.0
 10
-3.5625
 20
311.0
  0
LWPOLYLINE
  5
89
100
AcDbEntity
  8
LAYER22
370
    18
390
0
  6
DASHED
 62
     1
100
AcDbPolyline
 90
        4
 70
     1
 10
-9.0625
 20
305.0
 10
-9.0625
 20
311.0
 10
14.9375
 20
311.0
 10
14.9375
 20
305.0
  0
CIRCLE
  5
8A
100
AcDbEntity
  8
LAYER22
390
0
  6
Continuous
 62
     1
100
AcDbCircle
 10
2.9375
 20
320.0
 30
0.0
 40
6.0
  0
CIRCLE
  5
8B
100
AcDbEntity
  8
LAYER22
390
0
  6
Continuous
 62
     1
100
AcDbCircle
 10
2.9375
 20
320.0
 30
0.0
 40
5.0
  0
LWPOLYLINE
  5
8C
100
AcDbEntity
  8
LAYER22
370
    18
390
0
  6
DASHED
 62
     1
100
AcDbPolyline
 90
        2
 70
     0
 10
0.4375
 20
315.669922
 10
5.4375
 20
324.3302
  0
LWPOLYLINE
  5
8D
100
AcDbEntity
  8
LAYER22
370
    18
390
0
  6
DASHED
 62
     1
100
AcDbPolyline
 90
        4
 70
     1
 10
55.9375
 20
329.0
 10
55.9375
 20
335.0
 10
79.9375
 20
335.0
 10
79.9375
 20
329.0
  0
LWPOLYLINE
  5
8E
100
AcDbEntity
  8
LAYER22
370
    18
390
0
  6
DASHED
 62
     1
100
AcDbPolyline
 90
        4
 70
     1
 10
61.4375
 20
329.0
 10
74.4375
 20
329.0
 10
74.4375
 20
311.0
 10
61.4375
 20
311.0
  0
LWPOLYLINE
  5
8F
100
AcDbEntity
  8
LAYER22
370
    18
390
0
  6
DASHED
 62
     1
100
AcDbPolyline
 90
        4
 70
     1
 10
55.9375
 20
305.0
 10
55.9375
 20
311.0
 10
79.9375
 20
311.0
 10
79.9375
 20
305.0
  0
CIRCLE
  5
90
100
AcDbEntity
  8
LAYER22
390
0
  6
Continuous
 62
     1
100
AcDbCircle
 10
67.9375
 20
320.0
 30
0.0
 40
6.0
  0
CIRCLE
  5
91
100
AcDbEntity
  8
LAYER22
390
0
  6
Continuous
 62
     1
100
AcDbCircle
 10
67.9375
 20
320.0
 30
0.0
 40
5.0
  0
LWPOLYLINE
  5
92
100
AcDbEntity
  8
LAYER22
370
    18
390
0
  6
DASHED
 62
     1
100
AcDbPolyline
 90
        2
 70
     0
 10
65.4375
 20
315.669922
 10
70.4375
 20
324.3302
  0
LWPOLYLINE
  5
93
100
AcDbEntity
  8
LAYER22
370
    25
390
0
  6
Continuous
 62
     2
100
AcDbPolyline
 90
       16
 70
     1
 10
-78.000488
 20
170.0
 10
-78.000488
 20
470.0
 10
-73.000488
 20
470.0
 10
-73.000488
 20
463.0
 10
-74.091309
 20
463.0
 42
1.0
 10
-69.939941
 20
463.0
 10
-71.000488
 20
463.0
 10
-71.000488
 20
470.0
 10
-66.000488
 20
470.0
 10
-66.000488
 20
170.0
 10
-71.000488
 20
170.0
 10
-71.000488
 20
176.927734
 10
-69.939941
 20
176.927734
 42
1.035421
 10
-74.091309
 20
176.927734
 10
-73.000488
 20
176.927734
 10
-73.000488
 20
170.0
  0
LWPOLYLINE
  5
94
100
AcDbEntity
  8
LAYER22
370
    25
390
0
  6
Continuous
 62
     2
100
AcDbPolyline
 90
       21
 70
     0
 10
-53.986328
 20
166.322021
 10
-59.5
 20
166.322021
 10
-59.5
 20
176.999756
 10
-57.939453
 20
177.000244
 42
0.999763
 10
-62.060547
 20
177.000244
 10
-60.5
 20
177.000244
 10
-60.5
 20
167.049072
 10
-65.999023
 20
170.148926
 10
-66.629883
 20
169.373047
 10
-59.452148
 20
165.032959
 10
-59.452148
 20
161.367676
 10
-61.476563
 20
159.952637
 10
-61.475586
 20
157.999756
 10
-60.978516
 20
157.499756
 10
-54.0
 20
157.499756
 10
-54.0
 20
158.499756
 10
-60.509766
 20
158.499756
 10
-60.509766
 20
159.491211
 10
-58.367188
 20
161.189453
 10
-58.367188
 20
165.032959
 10
-53.986328
 20
165.032959
  0
LWPOLYLINE
  5
95
100
AcDbEntity
  8
LAYER22
370
    25
390
0
  6
Continuous
 62
     2
100
AcDbPolyline
 90
       21
 70
     0
 10
-54.013672
 20
166.322021
 10
-48.5
 20
166.322021
 10
-48.5
 20
176.999756
 10
-50.060547
 20
177.000244
 42
-0.999763
 10
-45.939453
 20
177.000244
 10
-47.5
 20
177.000244
 10
-47.5
 20
167.049072
 10
-42.000977
 20
170.148926
 10
-41.370117
 20
169.373047
 10
-48.547852
 20
165.032959
 10
-48.547852
 20
161.367676
 10
-46.523438
 20
159.952637
 10
-46.524414
 20
157.999756
 10
-47.021484
 20
157.499756
 10
-54.0
 20
157.499756
 10
-54.0
 20
158.499756
 10
-47.490234
 20
158.499756
 10
-47.490234
 20
159.491211
 10
-49.632813
 20
161.189453
 10
-49.632813
 20
165.032959
 10
-54.013672
 20
165.032959
  0
LWPOLYLINE
  5
96
100
AcDbEntity
  8
LAYER22
370
    25
390
0
  6
Continuous
 62
     2
100
AcDbPolyline
 90
       16
 70
     1
 10
-66.000488
 20
170.0
 10
-66.000488
 20
470.0
 10
-61.000488
 20
470.0
 10
-61.000488
 20
463.0
 10
-62.091309
 20
463.0
 42
1.0
 10
-57.939941
 20
463.0
 10
-59.000488
 20
463.0
 10
-59.000488
 20
470.0
 10
-54.000488
 20
470.0
 10
-54.000488
 20
170.0
 10
-59.000488
 20
170.0
 10
-59.000488
 20
176.927734
 10
-57.939941
 20
176.927734
 42
1.035421
 10
-62.091309
 20
176.927734
 10
-61.000488
 20
176.927734
 10
-61.000488
 20
170.0
  0
LWPOLYLINE
  5
97
100
AcDbEntity
  8
LAYER22
370
    18
390
0
  6
DASHED
 62
     1
100
AcDbPolyline
 90
        4
 70
     1
 10
-60.015625
 20
329.0
 10
-60.015625
 20
335.0
 10
-36.015625
 20
335.0
 10
-36.015625
 20
329.0
  0
LWPOLYLINE
  5
98
100
AcDbEntity
  8
LAYER22
370
    18
390
0
  6
DASHED
 62
     1
100
AcDbPolyline
 90
        4
 70
     1
 10
-54.515625
 20
329.0
 10
-41.515625
 20
329.0
 10
-41.515625
 20
311.0
 10
-54.515625
 20
311.0
  0
LWPOLYLINE
  5
99
100
AcDbEntity
  8
LAYER22
370
    18
390
0
  6
DASHED
 62
     1
100
AcDbPolyline
 90
        4
 70
     1
 10
-60.015625
 20
305.0
 10
-60.015625
 20
311.0
 10
-36.015625
 20
311.0
 10
-36.015625
 20
305.0
  0
CIRCLE
  5
9A
100
AcDbEntity
  8
LAYER22
390
0
  6
Continuous
 62
     1
100
AcDbCircle
 10
-48.015625
 20
320.0
 30
0.0
 40
6.0
  0
CIRCLE
  5
9B
100
AcDbEntity
  8
LAYER22
390
0
  6
Continuous
 62
     1
100
AcDbCircle
 10
-48.015625
 20
320.0
 30
0.0
 40
5.0
  0
LWPOLYLINE
  5
9C
100
AcDbEntity
  8
LAYER22
370
    18
390
0
  6
DASHED
 62
     1
100
AcDbPolyline
 90
        2
 70
     0
 10
-50.515625
 20
315.669922
 10
-45.515625
 20
324.3302
  0
LWPOLYLINE
  5
9D
100
AcDbEntity
  8
LAYER22
370
    25
390
0
  6
Continuous
 62
     2
100
AcDbPolyline
 90
       16
 70
     1
 10
-54.000488
 20
170.0
 10
-54.000488
 20
470.0
 10
-49.000488
 20
470.0
 10
-49.000488
 20
463.0
 10
-50.091309
 20
463.0
 42
1.0
 10
-45.939941
 20
463.0
 10
-47.000488
 20
463.0
 10
-47.000488
 20
470.0
 10
-42.000488
 20
470.0
 10
-42.000488
 20
170.0
 10
-47.000488
 20
170.0
 10
-47.000488
 20
176.927734
 10
-45.939941
 20
176.927734
 42
1.035421
 10
-50.091309
 20
176.927734
 10
-49.000488
 20
176.927734
 10
-49.000488
 20
170.0
  0
LWPOLYLINE
  5
9E
100
AcDbEntity
  8
LAYER22
370
    25
390
0
  6
Continuous
 62
     2
100
AcDbPolyline
 90
       16
 70
     1
 10
-42.000488
 20
328.0
 10
-42.000488
 20
470.0
 10
-37.000488
 20
470.0
 10
-37.000488
 20
463.0
 10
-38.091309
 20
463.0
 42
1.0
 10
-33.939941
 20
463.0
 10
-35.000488
 20
463.0
 10
-35.000488
 20
470.0
 10
-30.000488
 20
470.0
 10
-30.000488
 20
328.0
 10
-35.000488
 20
328.0
 10
-35.000488
 20
334.927734
 10
-33.939941
 20
334.927734
 42
1.035421
 10
-38.091309
 20
334.927734
 10
-37.000488
 20
334.927734
 10
-37.000488
 20
328.0
  0
LWPOLYLINE
  5
9F
100
AcDbEntity
  8
LAYER22
370
    25
390
0
  6
Continuous
 62
     2
100
AcDbPolyline
 90
       16
 70
     1
 10
-90.000488
 20
170.0
 10
-90.000488
 20
312.0
 10
-85.000488
 20
312.0
 10
-85.000488
 20
305.0
 10
-86.091309
 20
305.0
 42
1.0
 10
-81.939941
 20
305.0
 10
-83.000488
 20
305.0
 10
-83.000488
 20
312.0
 10
-78.000488
 20
312.0
 10
-78.000488
 20
170.0
 10
-83.000488
 20
170.0
 10
-83.000488
 20
176.927734
 10
-81.939941
 20
176.927734
 42
1.035421
 10
-86.091309
 20
176.927734
 10
-85.000488
 20
176.927734
 10
-85.000488
 20
170.0
  0
LWPOLYLINE
  5
A0
100
AcDbEntity
  8
LAYER22
370
    25
390
0
  6
Continuous
 62
     2
100
AcDbPolyline
 90
       21
 70
     0
 10
-77.986328
 20
166.322021
 10
-83.5
 20
166.322021
 10
-83.5
 20
176.999756
 10
-81.939453
 20
177.000244
 42
0.999763
 10
-86.060547
 20
177.000244
 10
-84.5
 20
177.000244
 10
-84.5
 20
167.049072
 10
-89.999023
 20
170.148926
 10
-90.629883
 20
169.373047
 10
-83.452148
 20
165.032959
 10
-83.452148
 20
161.367676
 10
-85.476563
 20
159.952637
 10
-85.475586
 20
157.999756
 10
-84.978516
 20
157.499756
 10
-78.0
 20
157.499756
 10
-78.0
 20
158.499756
 10
-84.509766
 20
158.499756
 10
-84.509766
 20
159.491211
 10
-82.367188
 20
161.189453
 10
-82.367188
 20
165.032959
 10
-77.986328
 20
165.032959
  0
LWPOLYLINE
  5
A1
100
AcDbEntity
  8
LAYER22
370
    25
390
0
  6
Continuous
 62
     2
100
AcDbPolyline
 90
       21
 70
     0
 10
-78.013672
 20
166.322021
 10
-72.5
 20
166.322021
 10
-72.5
 20
176.999756
 10
-74.060547
 20
177.000244
 42
-0.999763
 10
-69.939453
 20
177.000244
 10
-71.5
 20
177.000244
 10
-71.5
 20
167.049072
 10
-66.000977
 20
170.148926
 10
-65.370117
 20
169.373047
 10
-72.547852
 20
165.032959
 10
-72.547852
 20
161.367676
 10
-70.523438
 20
159.952637
 10
-70.524414
 20
157.999756
 10
-71.021484
 20
157.499756
 10
-78.0
 20
157.499756
 10
-78.0
 20
158.499756
 10
-71.490234
 20
158.499756
 10
-71.490234
 20
159.491211
 10
-73.632813
 20
161.189453
 10
-73.632813
 20
165.032959
 10
-78.013672
 20
165.032959
  0
LWPOLYLINE
  5
A2
100
AcDbEntity
  8
LAYER22
370
    25
390
0
  6
Continuous
 62
     2
100
AcDbPolyline
 90
       14
 70
     1
 10
-35.515625
 20
320.466553
 10
-30.62207
 20
320.466553
 10
-28.568359
 20
332.616943
 10
-27.582031
 20
332.450195
 10
-29.595703
 20
320.533447
 10
-20.821289
 20
320.533447
 10
-20.821289
 20
322.109375
 42
-1.035174
 10
-20.821289
 20
317.95752
 10
-20.821289
 20
319.533447
 10
-29.595703
 20
319.533447
 10
-27.582031
 20
307.616699
 10
-28.568359
 20
307.450195
 10
-30.611328
 20
319.533447
 10
-36.515625
 20
319.533447
  0
LWPOLYLINE
  5
A3
100
AcDbEntity
  8
LAYER22
370
    25
390
0
  6
Continuous
 62
     2
100
AcDbPolyline
 90
       14
 70
     1
 10
-38.091797
 20
334.927734
 42
-1.035352
 10
-33.939445
 20
334.927979
 10
-35.53125
 20
334.927979
 10
-35.53125
 20
324.250244
 10
-30.347656
 20
328.467041
 10
-29.716797
 20
327.691406
 10
-35.53125
 20
322.960938
 10
-35.515625
 20
320.466553
 10
-36.515625
 20
319.533447
 10
-36.53125
 20
322.960938
 10
-42.345703
 20
327.688965
 10
-41.714844
 20
328.464844
 10
-36.53125
 20
324.249756
 10
-36.53125
 20
334.927734
  0
LWPOLYLINE
  5
A4
100
AcDbEntity
  8
LAYER22
370
    25
390
0
  6
Continuous
 62
     2
100
AcDbPolyline
 90
       10
 70
     0
 10
-84.500977
 20
320.0
 10
-84.500977
 20
323.751953
 10
-90.430664
 20
326.151611
 10
-90.055664
 20
327.078369
 10
-84.501953
 20
324.831055
 10
-84.507813
 20
333.928223
 10
-86.09082
 20
333.928223
 42
-1.035169
 10
-81.938477
 20
333.928223
 10
-83.506836
 20
333.928223
 10
-83.501953
 20
320.0
  0
LWPOLYLINE
  5
A5
100
AcDbEntity
  8
LAYER22
370
    25
390
0
  6
Continuous
 62
     2
100
AcDbPolyline
 90
       10
 70
     0
 10
-84.500977
 20
320.0
 10
-84.505859
 20
314.596558
 10
-90.435547
 20
312.197021
 10
-90.060547
 20
311.27002
 10
-84.506836
 20
313.517456
 10
-84.506836
 20
305.071777
 10
-86.089844
 20
305.071777
 42
1.035169
 10
-81.9375
 20
305.071777
 10
-83.505859
 20
305.071777
 10
-83.501953
 20
320.0
  0
LWPOLYLINE
  5
A6
100
AcDbEntity
  8
LAYER22
370
    25
390
0
  6
Continuous
 62
     2
100
AcDbPolyline
 90
       10
 70
     1
 10
-90.0
 20
327.0
 10
-90.0
 20
382.0
 10
-78.0
 20
382.0
 10
-78.0
 20
327.0
 10
-83.0
 20
327.0
 10
-83.0
 20
333.928711
 10
-81.939453
 20
333.928711
 42
1.034934
 10
-86.09082
 20
333.928711
 10
-85.0
 20
333.928711
 10
-85.0
 20
327.0
  0
LWPOLYLINE
  5
A7
100
AcDbEntity
  8
LAYER22
370
    18
390
0
  6
Continuous
 62
     1
100
AcDbPolyline
 90
        6
 70
     1
 10
-78.0
 20
360.079102
 10
-78.0
 20
350.081055
 10
-81.0
 20
353.038086
 10
-91.0
 20
353.038086
 10
-91.0
 20
357.038086
 10
-81.0
 20
357.038086
  0
LWPOLYLINE
  5
A8
100
AcDbEntity
  8
LAYER22
370
    18
390
0
  6
Continuous
 62
     1
100
AcDbPolyline
 90
        2
 70
     0
 10
-81.0
 20
353.038086
 10
-81.0
 20
357.038086
  0
LWPOLYLINE
  5
A9
100
AcDbEntity
  8
LAYER22
370
    18
390
0
  6
Continuous
 62
     1
100
AcDbPolyline
 90
       22
 70
     0
 10
-91.0
 20
353.038086
 10
-93.25
 20
356.888184
 10
-95.390625
 20
353.330811
 10
-97.68042
 20
356.592773
 10
-100.132324
 20
353.646973
 10
-102.431152
 20
356.276123
 10
-104.754883
 20
353.955078
 10
-106.980469
 20
355.9729
 10
-109.025146
 20
354.23999
 10
-110.852295
 20
355.7146
 10
-112.476074
 20
354.469971
 10
-113.593994
 20
355.531982
 10
-114.67749
 20
354.616699
 10
-115.722168
 20
355.389893
 10
-116.690186
 20
354.750732
 10
-117.431885
 20
355.276123
 10
-118.3125
 20
354.859131
 10
-118.863525
 20
355.180664
 10
-119.236572
 20
354.920654
 10
-119.787598
 20
355.118896
 10
-120.15918
 20
354.982178
 10
-120.990234
 20
355.080078
  0
LWPOLYLINE
  5
AA
100
AcDbEntity
  8
LAYER22
370
    25
390
0
  6
Continuous
 62
     2
100
AcDbPolyline
 90
       21
 70
     0
 10
-65.986328
 20
473.677979
 10
-71.5
 20
473.677979
 10
-71.5
 20
463.000244
 10
-69.939453
 20
462.999756
 42
-0.999763
 10
-74.060547
 20
462.999756
 10
-72.5
 20
462.999756
 10
-72.5
 20
472.950928
 10
-77.999023
 20
469.851074
 10
-78.629883
 20
470.626953
 10
-71.452148
 20
474.967041
 10
-71.452148
 20
478.632324
 10
-73.476563
 20
480.047363
 10
-73.475586
 20
482.000244
 10
-72.978516
 20
482.500244
 10
-66.0
 20
482.500244
 10
-66.0
 20
481.500244
 10
-72.509766
 20
481.500244
 10
-72.509766
 20
480.508789
 10
-70.367188
 20
478.810547
 10
-70.367188
 20
474.967041
 10
-65.986328
 20
474.967041
  0
LWPOLYLINE
  5
AB
100
AcDbEntity
  8
LAYER22
370
    25
390
0
  6
Continuous
 62
     2
100
AcDbPolyline
 90
       21
 70
     0
 10
-66.013672
 20
473.677979
 10
-60.5
 20
473.677979
 10
-60.5
 20
463.000244
 10
-62.060547
 20
462.999756
 42
0.999763
 10
-57.939453
 20
462.999756
 10
-59.5
 20
462.999756
 10
-59.5
 20
472.950928
 10
-54.000977
 20
469.851074
 10
-53.370117
 20
470.626953
 10
-60.547852
 20
474.967041
 10
-60.547852
 20
478.632324
 10
-58.523438
 20
480.047363
 10
-58.524414
 20
482.000244
 10
-59.021484
 20
482.500244
 10
-66.0
 20
482.500244
 10
-66.0
 20
481.500244
 10
-59.490234
 20
481.500244
 10
-59.490234
 20
480.508789
 10
-61.632813
 20
478.810547
 10
-61.632813
 20
474.967041
 10
-66.013672
 20
474.967041
  0
LWPOLYLINE
  5
AC
100
AcDbEntity
  8
LAYER22
370
    25
390
0
  6
Continuous
 62
     2
100
AcDbPolyline
 90
       21
 70
     0
 10
-41.986328
 20
473.677979
 10
-47.5
 20
473.677979
 10
-47.5
 20
463.000244
 10
-45.939453
 20
462.999756
 42
-0.999763
 10
-50.060547
 20
462.999756
 10
-48.5
 20
462.999756
 10
-48.5
 20
472.950928
 10
-53.999023
 20
469.851074
 10
-54.629883
 20
470.626953
 10
-47.452148
 20
474.967041
 10
-47.452148
 20
478.632324
 10
-49.476563
 20
480.047363
 10
-49.475586
 20
482.000244
 10
-48.978516
 20
482.500244
 10
-42.0
 20
482.500244
 10
-42.0
 20
481.500244
 10
-48.509766
 20
481.500244
 10
-48.509766
 20
480.508789
 10
-46.367188
 20
478.810547
 10
-46.367188
 20
474.967041
 10
-41.986328
 20
474.967041
  0
LWPOLYLINE
  5
AD
100
AcDbEntity
  8
LAYER22
370
    25
390
0
  6
Continuous
 62
     2
100
AcDbPolyline
 90
       21
 70
     0
 10
-42.013672
 20
473.677979
 10
-36.5
 20
473.677979
 10
-36.5
 20
463.000244
 10
-38.060547
 20
462.999756
 42
0.999763
 10
-33.939453
 20
462.999756
 10
-35.5
 20
462.999756
 10
-35.5
 20
472.950928
 10
-30.000977
 20
469.851074
 10
-29.370117
 20
470.626953
 10
-36.547852
 20
474.967041
 10
-36.547852
 20
478.632324
 10
-34.523438
 20
480.047363
 10
-34.524414
 20
482.000244
 10
-35.021484
 20
482.500244
 10
-42.0
 20
482.500244
 10
-42.0
 20
481.500244
 10
-35.490234
 20
481.500244
 10
-35.490234
 20
480.508789
 10
-37.632813
 20
478.810547
 10
-37.632813
 20
474.967041
 10
-42.013672
 20
474.967041
  0
ENDSEC
  0
SECTION
  2
OBJECTS
  0
DICTIONARY
  5
19
100
AcDbDictionary
280
     0
281
     1
  3
ACAD_GROUP
350
1A
  3
ACAD_MLINESTYLE
350
1B
  3
ACAD_LAYOUT
350
1E
  3
ACAD_PLOTSETTINGS
350
22
  3
ACAD_PLOTSTYLENAME
350
1F
  3
ACAD_WIPEOUT_VARS
350
23
  0
DICTIONARY
  5
1A
102
{ACAD_REACTORS
330
19
102
}
100
AcDbDictionary
280
     0
281
     1
  0
DICTIONARY
  5
1B
102
{ACAD_REACTORS
330
19
102
}
100
AcDbDictionary
280
     0
281
     1
  3
Standard
350
1C
  0
MLINESTYLE
  5
1C
102
{ACAD_REACTORS
330
1B
102
}
100
AcDbMlineStyle
  2
Standard
 70
     0
  3

 62
     0
 51
90.0
 52
90.0
 71
     2
 49
0.5
 62
   256
  6
ByLayer
 49
-0.5
 62
   256
  6
ByLayer
  0
ACDBDICTIONARYWDFLT
  5
1F
102
{ACAD_REACTORS
330
19
102
}
100
AcDbDictionary
281
     1
  3
Normal
350
1D
100
AcDbDictionaryWithDefault
340
1D
  0
ACDBPLACEHOLDER
  5
1D
102
{ACAD_REACTORS
330
1F
102
}
  0
LAYOUT
  5
20
102
{ACAD_REACTORS
330
1E
102
}
100
AcDbPlotSettings
  1

  2

  4

  6

 40
0.0
 41
0.0
 42
0.0
 43
0.0
 44
0.0
 45
0.0
 46
0.0
 47
0.0
 48
0.0
 49
0.0
140
0.0
141
0.0
142
1.0
143
1.0
 70
  1024
 72
     0
 73
     0
 74
     0
  7

 75
     0
147
1.0
148
0.0
149
0.0
100
AcDbLayout
  1
Model
 70
     0
 71
     0
 10
0.0
 20
0.0
 11
0.0
 21
0.0
 12
0.0
 22
0.0
 32
0.0
 14
0.0
 24
0.0
 34
0.0
 15
0.0
 25
0.0
 35
0.0
146
0.0
 13
0.0
 23
0.0
 33
0.0
 16
0.0
 26
0.0
 36
0.0
 17
0.0
 27
0.0
 37
0.0
 76
     0
330
A
331
0
345
0
346
0
  0
LAYOUT
  5
21
102
{ACAD_REACTORS
330
1E
102
}
100
AcDbPlotSettings
  1

  2

  4

  6

 40
0.0
 41
0.0
 42
0.0
 43
0.0
 44
0.0
 45
0.0
 46
0.0
 47
0.0
 48
0.0
 49
0.0
140
0.0
141
0.0
142
1.0
143
1.0
 70
     0
 72
     0
 73
     0
 74
     0
  7

 75
     0
147
1.0
148
0.0
149
0.0
100
AcDbLayout
  1
Layout1
 70
     0
 71
     0
 10
0.0
 20
0.0
 11
0.0
 21
0.0
 12
0.0
 22
0.0
 32
0.0
 14
0.0
 24
0.0
 34
0.0
 15
0.0
 25
0.0
 35
0.0
146
0.0
 13
0.0
 23
0.0
 33
0.0
 16
0.0
 26
0.0
 36
0.0
 17
0.0
 27
0.0
 37
0.0
 76
     0
330
B
331
0
345
0
346
0
  0
DICTIONARY
  5
1E
102
{ACAD_REACTORS
330
19
102
}
100
AcDbDictionary
280
     0
281
     1
  3
Layout1
350
21
  3
Model
350
20
  0
DICTIONARY
  5
22
102
{ACAD_REACTORS
330
19
102
}
100
AcDbDictionary
280
     0
281
     1
  0
WIPEOUTVARIABLES
  5
23
100
AcDbWipeoutVariables
 70
     1
  0
ENDSEC
  0
EOF
